» » »

Matchbook Romance, The Greatest Fall Tabs (ver.3)

Artists:  A B C D E F G H I J K L M N O P Q R S T U V W X Y Z # 

The Greatest Fall Tabs (ver.3)

Matchbook Romance Tabs
 Rating:
4/5 (4 votes)
The Greatest Fall lessons Tabs too difficult? Try these video lessons and learn fast
                They are a band from Poughkeepsie New York.
The band members are
Andrew Jordan - Vocals, Guitar
Judas DePaolo - Guitar
Ryan Kienle - Bass
Aaron Stern - Drums
They have recently released an EP titled West For Wishing, onthe Ephitaph label.

Matchbook Romance

The Greatest Fall (Of All Time)

West For Wishing EP

Gtr. 1 - Intro (4x’s)


[---------------------------]  
[---------------------------]
[-----8-9---8-9---8-9---8-9-]  
[---9-----9-----9-----9-----]  
[-7-------------------------]
[---------------------------]

Gtr. 2 - Intro (Come in 2nd time on Gtr. 1’s riff)

[--------------------------]
[--------------------------]
[-14-13-9/11-9/11-8-9-13-9-]
[--------------------------]
[--------------------------]
[--------------------------]

Gtr. 1 - Verse 1 (Do these two riffs a bunch of times)

[--------------------------------------------]
[--------------------------------------------]
[-9-11-9-11-9-11-9-1111-13-11-13-11-13-11-13-]
[--------------------------------------------]
[--------------------------------------------]
[--------------------------------------------]

Gtr. 1 – PreChorus Feedback (Bend this slightly and release slighty over and over
again until...)

[----]
[-16-]
[----]
[----]
[----]
[----]

IIIII SET MYSELF UP FOR THE GREATEST FAAAAAALL OFFF ALL TIIIME!
Chorus – Guitar 2 is the first section and 1 is the second? Just these two
chords, you can figure out the rhythem...

[------]   [-------]
[------]   [-------]
[-9-11-]   [-------]
[-9-11-]   [-------]
[-7-9--]   [-7p6h9-]
[------]   [-------]

Verse 2 mess around with the rhythem for this chord. The First bit is the pre-verse.

[---------------]
[---------------]
[---------------]
[---------------]
[-7p6-7-6-7p6-2-]
[---------------]

[----------]
[----------]
[-9-9-9999-]
[-9-9-9999-]
[-7-7-7777-]
[----------]

Prechorus 2 – Gtr. 1 a couple’a times.

[--------]
[-11-9---]
[------9-]
[--------]
[--------]
[--------]

Chorus

Bridge Play whats in fancy brackets really fast {}

[-----------------------------------][------------------]
[-----------------------------------][------------------]
[-9----8----9----888-8/10-99-111111-][-666-6/8-66-12----]
[-9-x8-8-x8-9-x8-888-8/10-99-111111-][-666-6/8-66-12-x3-]
[-7----6----7----666-6/8--77-9-9-9—-][-444-4/6-44-10----]
[-----------------------------------][------------------]

[--------------------------------------------------------------]
[--------------------------------------------------------------]
[-888-8/10-111111—9~-11-9-11-9-13-9-14-13-11-9-11-9-11-9-14-13-]
[-888-8/10-111111—9~-------------------------------------------]
[-666-6/8—-9-9-9--7~-------------------------------------------]
[--------------------------------------------------------------]

[--------------------] Outro – [------------------------]
[--------------------]         [------------------------]
[-9-11-9-{999}-------]         [-13----11—---9~-—8~--9~-]
[-9-11-9-{999}-------]         [-13-x8-11-x8-9~--8~--9~-]
[-7-9--7-{777}-7p6h9-]         [-11----9-----7~—-6~--7~-]
[--------------------]         [------------------------]

Chorus then outro. That’s it. I have it almost complete ecxept for that riff
right before the second verse. I hope you like.
            
Submit corrections

comments powered by Disqus
↑ Back to top | Matchbook Romance Tabs for The Greatest Fall. Lyrics for acoustic guitar and electric guitar. Tablatures and chords are parodies/interpretations of the original songs. You may use it for private study, scholarship, research or language learning purposes only