» » »

Matchbook Romance, Monsters Bass tabs (ver.3)

Artists:  A B C D E F G H I J K L M N O P Q R S T U V W X Y Z # 

Monsters Bass tabs (ver.3)

Matchbook Romance Tabs
Rating:
4/5 (6 votes)
Monsters lessons Tabs too difficult? Try these video lessons and learn fast
                -------------------------------------------------------------------------------
			     Monsters - Matchbook Romance
-------------------------------------------------------------------------------


Tuning: Half a step down

Verse 1
G|----------------/----------------/----------------/-7-5-----------|
D|-------5-7-5----/-------5-7-5----/-------5-7-5----/-----8-7-5-----7
A|-5-7-8-------8-7/-5-7-8-------8-7/-5-7-8-------8-7/-----------8-7-|
E|----------------/----------------/----------------/---------------|

G|----------------/----------------/-7-5------------/-7-------------|
D|-------5-7-5----/-------5-7-5----/-----8-7-5------/---7-8-5-7-5---|
A|-5-7-8-------8-7/-5-7-8-------8-7/-----------8-7-5/-------------8-7
E|----------------/----------------/----------------/---------------|

G|----------------/----------------/----------------/---------------|
D|----------------/----------------/----------------/---------------|
A|-5-5-5-5-5-5-5-5/-7-7-7-7-7-7-7-7/-8-8-8-8-8-8-8-8/-10-(x8)-------|
E|----------------/----------------/----------------/---------------|

Chorus
G|----------------/----------------/----------------/---------------|
D|----------------/----------------/----------------/---------------|
A|-2-2-2-2-2-2-2-2/----------------/-5-5-5-5-5-5-5-5/---------------|
E|----------------/-3-3-3-3-3-3-3-3/----------------/-2-2-2-2-2-2-2-2


G|----------------/----------------/
D|----------------/----------------/
A|----------------/----------------/
E|-3-3-3-3-3-3-3-3/-0-0-0-0-0-0-0-0/ X2

Verse 2
G|----------------/----------------/-7-5------------/---------------|
D|-------5-7-5----/-------5-7-5----/-----8-7-5------/----------------
A|-5-7-8-------8-7/-5-7-8-------8-7/-----------8-7-5/-5-5-----------|
E|----------------/----------------/----------------/-----8-7-8-7-5-|

G|----------------/----------------/-7-5------------/---------------|
D|-------5-7-5----/-------5-7-5----/-----8-7-5------/----------------
A|-5-7-8-------8-7/-5-7-8-------8-7/-----------8-7-5/---------------|
E|----------------/----------------/----------------/-8-6-5-5-6-8-10|

G|----------------/----------------/-7-5------------/-7-------------|
D|-------5-7-5----/-------5-7-5----/-----8-7-5------/---7-8-5-7-5---|
A|-5-7-8-------8-7/-5-7-8-------8-7/-----------8-7-5/-------------8-2
E|----------------/----------------/----------------/---------------|

G|----------------/----------------/----------------/---------------|
D|----------------/----------------/----------------/---------------|
A|-5-5-5-5-5-5-5-5/-7-7-7-7-7-7-7-7/-8-8-8-8-8-8-8-8/-10-(x8)------|
E|----------------/----------------/----------------/---------------|

Chorus
G|----------------/----------------/----------------/---------------|
D|----------------/----------------/----------------/---------------|
A|-2-2-2-2-2-2-2-2/----------------/-5-5-5-5-5-5-5-5/---------------|
E|----------------/-3-3-3-3-3-3-3-3/----------------/-2-2-2-2-2-2-2-2


G|----------------/----------------/
D|----------------/----------------/
A|----------------/----------------/
E|-3-3-3-3-3-3-3-3/-0-0-0-0-0-0-0-0/ X2 

Bridge
G|---------------/---------------/---------------/---------------|
D|---------------/---------------/---------------/-4-2-0-2-0-----|
A|-2--2---2--222-/-2--2---2—222--/-2---2---2—222-/-----------4---|
E|---------------/---------------/---------------/-------------1— X1

G|----------------/----------------/-------------/---------------|
D|----------------/----------------/-------------/---------------|
A|----------------/----------------/-------------/------------0-0|
E|----------------/----------------/-------------/---------------- X4

SOLO
G|----------------/----------------/----------------/---------------|
D|----------------/----------------/----------------/---------------|
A|-2-2-2-2-2-2-2-2/----------------/-5-5-5-5-5-5-5-5/---------------|
E|----------------/-3-3-3-3-3-3-3-3/----------------/-2-2-2-2-2-2-2-2


G|----------------/----------------/
D|----------------/----------------/
A|----------------/----------------/
E|-3-3-3-3-3-3-3-3/-0-0-0-0-0-0-0-0/ X2

Chorus
G|----------------/----------------/----------------/---------------|
D|----------------/----------------/----------------/---------------|
A|-2-2-2-2-2-2-2-2/----------------/-5-5-5-5-5-5-5-5/---------------|
E|----------------/-3-3-3-3-3-3-3-3/----------------/-2-2-2-2-2-2-2-2


G|----------------/----------------/
D|----------------/----------------/
A|----------------/----------------/
E|-3-3-3-3-3-3-3-3/-0-0-0-0-0-0-0-0/  X3

| /  slide up
| \  slide down
| h  hammer-on
| p  pull-off
| ~  vibrato
| +  harmonic
| x  Mute note
===============================================================================
            
Submit corrections

comments powered by Disqus
↑ Back to top | Matchbook Romance Bass for Monsters. Lyrics for acoustic guitar and electric guitar. Tablatures and chords are parodies/interpretations of the original songs. You may use it for private study, scholarship, research or language learning purposes only