» » »

Monsters Bass tabs (ver.1)

Artists:  A B C D E F G H I J K L M N O P Q R S T U V W X Y Z # 

Monsters Bass tabs (ver.1)

Matchbook Romance
Rating:
5/5 (7 votes)

Hard to play? Try these video lessons and learn fast.
                Tuning: Eb Ab Db Gb

Verse 1
|----------------|----------------|----------------|4-2-------------|
|------2-4-2-----|------2-4-2-----|------2-4-2-----|----5-4-2-----4-|
|2-4-5-------5-4-|2-4-5-------5-4-|2-4-5-------5-4-|----------5-4---|
|----------------|----------------|----------------|----------------|

|----------------|----------------|--4-2-----------|4---2-----------|
|------2-4-2-----|------2-4-2-----|------5-4-2-----|--5---4-5-2-4---|
|2-4-5-------5-4-|2-4-5-------5-4-|2-----------5-4-|--------------5-|
|----------------|----------------|----------------|----------------|

Prechorus
|----------------|----------------|----------------|----------------|
|----------------|----------------|----------------|----------------|
|2-2-2-2-2-2-2-2-|4-4-4-4-4-4-4-4-|5-5-5-5-5-5-5-5-|----------------|
|----------------|----------------|----------------|0-0-0-0-0-0-0-0-|

Chorus 1
|----------------|----------------|----------------|----------------|
|----------------|----------------|----------------|----------------|
|2-2-2-2-2-2-2-2-|----------------|5-5-5-5-5-5-5-5-|----------------|
|----------------|3-3-3-3-3-3-3-3-|----------------|2-2-2-2-2-0-2-3-|

|----------------|----------------|----------------|----------------|
|----------------|--2-2-2-2-2-2-2-|----------------|----------------|
|----------------|----------------|2-2-2-2-2-2-2-2-|----------------|
|3-3-3-3-3-3-3-3-|0---------------|----------------|3-3-3-3-3-3-3-3-|

|----------------|----------------|----------------|----------------|
|----------------|----------------|----------------|--2-2-2-2-2-2-2-|
|5-5-5-5-5-5-5-5-|--------4-2-0---|----------------|----------------|
|----------------|2-2-2-2-------2-|3-3-3-3-3-5-3-2-|0---------------|

Preverse
|----------------|----------------|--4-2-----------|2h4p2-----------|
|------2-4-2-----|------2-4-2-----|------5-4-2-----|-----4h5p4------|
|2-4-5-------5-4-|2-4-5-------5-4-|2-----------5-4-|----------------|
|----------------|----------------|----------------|-----------1~---|

Verse 2
|----------------|----------------|--4-2-----------|----------------|
|------2-4-2-----|------2-4-2-----|------5-4-2-----|----------------|
|2-4-5-------5-4-|2-4-5-------5-4-|2-----------5-4-|2-0-----------0-|
|----------------|----------------|----------------|----3-2-0-2-3---|

|----------------|----------------|----------------|----4-2---------|
|------2-4-2-----|------2-4-2-----|------2-4-2-----|--4-----5-4-2-5-|
|2-4-5-------5-4-|2-4-5-------5-4-|2-4-5-------5-4-|2---------------|
|----------------|----------------|----------------|----------------|

|----------------|----------------|----------------|----------------|
|----------------|----------------|----------------|----------------|
|2-2-2-2-2-2-2-2-|4-4-4-4-4-4-4-4-|5-5-5-5-5-5-5-5-|----------------|
|----------------|----------------|----------------|0-0-0-0-0-0-0-0-|

Chorus 2
|----------------|----------------|----------------|----------------|
|----------------|----------------|----------------|----------------|
|2-2-2-2-2-2-2-2-|----------------|5-5-5-5-5-5-5-5-|--------4-2-----|
|----------------|3-3-3-3-3-3-3-3-|----------------|2-2-2-2-----5-2-|

|----------------|----------------|----------------|----------------|
|----------------|--2-2-2-2-2-2-2-|----------------|----------------|
|----------------|----------------|2-2-2-2-2-2-2-2-|----------------|
|3-3-3-3-3-5-3-2-|0---------------|----------------|3-3-3-3-3-3-3-3-|

|----------------|----------------|----------------|----------------|
|----------------|----------------|----------------|--2-2-2-2-2-2-2-|
|5-5-5-5-5-5-5-5-|----------------|----------------|----------------|
|----------------|2-2-2-2-2-0-2-3-|3-3-3-3-3-3-3-3-|0---------------|

Bridge pt 1
|-----------|---------|----------|-----------------|
|-----------|---------|----------|4-2-0-2-0--------|
|-2-2-22-22-|2-2-22-22|-2-2-22-22|----------4------|
|-----------|---------|----------|------------1----|

Bridge pt 2
|----------------|----------------|----------------|----------------|
|----------------|----------------|----------------|----------------|
|2~------------2-|1~------------1-|0~------------0-|----------------|
|----------------|----------------|----------------|0~--------2---2-|

|----------------|----------------|----------------|----------------|
|----------------|----------------|----------------|----------------|
|2~------------2-|4~------------4-|5~------------5-|----------------|
|----------------|----------------|----------------|0~--------2---2-|

|----------------|----------------|----------------|----------------|
|----------------|----------------|----------------|----------------|
|2~------------2-|1~------------1-|0~------------0-|----------------|
|----------------|----------------|----------------|0~--------2---2-|

|----------------|----------------|----------------|----------------|
|----------------|----------------|----------------|----------------|
|2~------------2-|4~------------4-|5~------------5-|----------------|
|----------------|----------------|----------------|0-0-0-0-0-0-0-0-|

Guitar Solo
|----------------|----------------|----------------|----------------|
|----------------|----------------|----------------|----------------|
|2-2-2-2-2-2-2-2-|----------------|5-5-5-5-5-5-5-5-|----------------|
|----------------|3-3-3-3-3-3-3-3-|----------------|2-2-2-2-2-2-2-2-|

|----------------|----------------|----------------|----------------|
|----------------|----------------|----------------|----------------|
|----------------|----------------|2-2-2-2-2-2-2-2-|----------------|
|3-3-3-3-3-3-3-3-|0-0-0-0-0-0-0-0-|----------------|3-3-3-3-3-3-3-3-|

|----------------|----------------|----------------|----------------|
|----------------|----------------|----------------|--2-2-2-2-2-2-2-|
|5-5-5-5-5-5-5-5-|----------------|----------------|----------------|
|----------------|2-2-2-2-2-2-2-2-|3-3-3-3-3-3-3-3-|0---------------|

You just repeat the chorus again and you can pretty much figure out the rest

Written by craigbrown
            
Hard to play? Try these video lessons and learn fast. | Correct




comments powered by Disqus
↑ Back to top | Tablatures and chords are parodies/interpretations of the original songs. You may use it for private study, scholarship, research or language learning purposes only