» » »

Matchbook Romance, Monsters Bass tabs (ver.2)

Artists:  A B C D E F G H I J K L M N O P Q R S T U V W X Y Z # 

Monsters Bass tabs (ver.2)

Matchbook Romance Tabs
 Rating:
4/5 (4 votes)
Monsters lessons Tabs too difficult? Try these video lessons and learn fast
                enjoy it. i didn't tab it though unfortunately. thx guys.
0:00 intro
G  [----------------]
D  [----------------]
A  [----------------]
E  [----------------]

0:17
G  [---------------][----------------][---------------][2-0--------------][---------------]
D  [------0-2-0----][------0-2-0-----][------0-2-0----][----3-2-0------2-][------0-2-0----]
A  [0-2-3------3-2-][0-2-3------3-2--][0-2-3------3-2-][-----------3-2---][0-2-3------3-2-]
E  [---------------][----------------][---------------][-----------------][---------------]

G  [---------------][2-0--------------][2---------------][----------------][---------------]
D  [------0-2-0----][----3-2-0--------][--2-3-0-2-0-----][----------------][---------------]
A  [0-2-3------3-2-][-----------3-2-0-][------------3-2-][0-0-0-0-0-0-0-0-][2-2-2-2-2-2-2-2]
E  [---------------][-----------------][----------------][----------------][---------------]
	       --slide into fret 5
G  [----------------][----------------]
D  [----------------][----------------]
A  [3-3-3-3-3-3-3-3-][5-5-5-5-5-5-5-5-]
E  [----------------][----------------]

Chorus repeat 2X 0:42
G  [------------------------------------------------------------------------------------------------|
D  [------------------------------------------------------------------------------------------------|
A  [0-0-0-0-0-0-0-0---------------------3-3-3-3-3-3-3-3----------------------------------------5-5--|
E  [--------------------1-1-1-1-1-1-1-1---------------------0-0-0-0-0-0-0-0-1-1-1-1-1-1-1-1---------|

G  ------------]
D  ------------]
A -5-5-5-5-5-5-]
E  ------------]

1:07
G  [---------------][---------------][2-0--------------][---------------]
D  [------0-2-0----][------0-2-0----][----3-2-0--------][---------------]
A  [0-2-3------3-2-][0-2-3------3-2-][-----------3-2-0-][0-0------------]
E  [---------------][---------------][-----------------][-----3-2-3-2-0-]

G  [---------------][---------------][2-0--------------][--------------][---------------]
D  [------0-2-0----][------0-2-0----][----3-2-0--------][--------------][------0-2-0----]
A  [0-2-3------3-2-][0-2-3------3-2-][-----------3-2-0-][--------------][0-2-3------3-2-]
E  [---------------][---------------][-----------------][3-1-0—0-1-3-5-][---------------]

G  [---------------][2-0--------------][2---------------][----------------][----------------]
D  [------0-2-0----][----3-2-0--------][--2-3-0-2-0-----][----------------][----------------]
A  [0-2-3------3-2-][-----------3-2-0-][------------3-2-][0-0-0-0-0-0-0-0-][2-2-2-2-2-2-2-2-]
E  [---------------][-----------------][----------------][----------------][----------------]
	       --slide into fret 5
G  [----------------][----------------]
D  [----------------][----------------]
A  [3-3-3-3-3-3-3-3-][5-5-5-5-5-5-5-5-]
E  [----------------][----------------]

Chorus repeat 2X 0:42
G  [------------------------------------------------------------------------------------------------|
D  [------------------------------------------------------------------------------------------------|
A  [0-0-0-0-0-0-0-0---------------------3-3-3-3-3-3-3-3----------------------------------------5-5--|
E  [--------------------1-1-1-1-1-1-1-1---------------------0-0-0-0-0-0-0-0-1-1-1-1-1-1-1-1---------|

G  ------------]
D  ------------]
A -5-5-5-5-5-5-]
E  ------------]

G  [---------------------------------------------------][----------------]
D  [---------------------------------------------------][2-0---0---------]
A  [0---0---0-0-0-0------------------------------------][-----3---3-2----]
E  [-------------------1---1---1-1-1-1-0---0---0-0-0-0-][--------------0-]

Bridge  repeat 4x
G[-----------------][------------------]
D[-----------------][------------------]
A[-----------------][--------------0-0-]
E[-----------------][------------------]
          3X		1X
Breakdown/Guitar Solo repeat 2X
G  [------------------------------------------------------------------------------------------------|
D  [------------------------------------------------------------------------------------------------|
A  [0-0-0-0-0-0-0-0---------------------3-3-3-3-3-3-3-3----------------------------------------5-5--|
E  [--------------------1-1-1-1-1-1-1-1---------------------0-0-0-0-0-0-0-0-1-1-1-1-1-1-1-1---------|

G  ------------]
D  ------------]
A -5-5-5-5-5-5-]
E  ------------]


Chorus
G  [------------------------------------------------------------------------------------------------|
D  [------------------------------------------------------------------------------------------------|
A  [0-0-0-0-0-0-0-0---------------------3-3-3-3-3-3-3-3----------------------------------------5-5--|
E  [--------------------1-1-1-1-1-1-1-1---------------------0-0-0-0-0-0-0-0-1-1-1-1-1-1-1-1---------|

G  ------------]
D  ------------]
A -5-5-5-5-5-5-]
E  ------------]

G  [----------------------------------------------------------------------------------------------|
D  [----------------------------------------------------------------------------------------------|
A  [0-0-0-0-0-0-0-0---------------------3-3-3-3-3-3-3-3----------------------------------------5--|
E  [--------------------1-1-1-1-1-1-1-1---------------------0-0-0-0-0-0-0-0-1---------------------|

G  --------------]
D  --------------]
A -0-------------]
E  --------------]
            
Submit corrections

comments powered by Disqus
↑ Back to top | Matchbook Romance Bass for Monsters. Lyrics for acoustic guitar and electric guitar. Tablatures and chords are parodies/interpretations of the original songs. You may use it for private study, scholarship, research or language learning purposes only