>
 >
Cant You See Complete

Cant You See Complete Guitar Tabs

Marshall Tucker Band - Cant You See  Complete chords, tabs, tablatures, lyrics

Guitar lessons | Add/correct | Request | Top 50 tabs Artists:  A B C D E F G H I J K L M N O P Q R S T U V W X Y Z 0-9

Cant You See Complete Guitar Tabs – Marshall Tucker Band

CD, Sheet music, Poster

Do you like Cant You See Complete? Share with your friends now
Tabs
CAN'T YOU SEE
As recorded by The Marshall Tucker Band
(From the 1975 Album THE MARSHALL TUCKER BAND)



D
x x 0 2 3 2 Dsus2/C
x 3 0 2 3 0 G
3 x 0 0 0 3 Dsus4
x x 0 2 3 3 
Dsus4/C
x 3 0 2 3 3 D7
x x 0 2 1 2 D7sus4
x x 0 2 1 3 D5/C
x 3 0 2 3 x 

Gtr I (E A D G B E) - 'Toy Caldwell - Acoustic Rhythm'
Gtr II (E A D G B E) - 'Jerry Eubanks - Flute arr. for gtr.'
Gtr III (E A D G B E) - 'George McCorkle - Acoustic Rhythm'
Gtr IV (E A D G B E) - 'Toy Caldwell - Lead w/light dist'

Intro
  Q=84
 4/4
  Gtr I
  E S S S S S S S S S S S S S S   E S S +S  S S S e E E E
|-------2-----3---2---------2---|-----------0-----3-0-0---|
|---3-----3---------3---3-------|-----3-(3)---3---3-3-3-3-|
|-----2---------2---------2-----|-----------------2-2---2-|
|-0---------0---------0---------|---0-----------0-0-0-----|
|-----------------------------0-|-3-----------------------|
|-------------------------------|-------------------------|


  Q  E S S S S S S S S E   Q  E S S s S E E S S
|-3--3-------------------|----2-2---3---2-2-2---|
|-0--0---------0-----0---|----3-3---3---3-3-3---|
|-0--0-------0-----0-----|----2-2---2---2-2-2---|
|-0------0h2-----0-------|-0------0---0-------0-|
|----------------------2-|----------------------|
|-3----3-----------------|----------------------|


  Gtr II
  ~~                      ~~~~~~~~~~~~~~
          |---3---|                             |--3--|
  Q.     +S  S    S  e    Q.        +Q    e  e  S  S  S  Q.
|--------------------------------|--------------------------------|
|------------------------10------|-(10)--10-12-10h12p10-----------|
|-7------(7)-9h==10h11-----------|--------------------------------|
|--------------------------------|----------------------12--------|
|--------------------------------|--------------------------------|
|--------------------------------|--------------------------------|
|
| Gtr I
| S E. E  S    S     s S  E  E E     Q    Q     E        E  S S E
|-0h2--2-------------3----2--2---|--------0-----0-----------------|
|------3--3----------3----3--3-3-|---3----3-----3-------------3---|
|---------2----------2----2--2-2-|---2----2-----2-----------------|
|--------------0-------0-----0-0-|---0-------------------0------0-|
|--------------------------------|---3----------------------3-----|
|--------------------------------|--------------------------------|


    ~~~~
                            |--3--|
   +Q   E  E  S  E.    +E   S  S  S
|-----------------------------------|
|-----------------------------------|
|------------10-14----(14)-10h14p10-|
|-(12)----12------------------------|
|-----------------------------------|
|-----------------------------------|
|
|   Q   E  E  E     E   E   E
|-----------------------------------|
|---0---0--0--0-----0---0-----------|
|---0---0--0--0-----0---0-----------|
|---------------------------0-------|
|-----------------------------------|
|---3-------------------------------|


                                    D
                                  Gtr III
   W                                 E    E  Q              Q     E E
                                     |    |  |              |     | |
                                     /    /  /              /     / /

   ~~~                                                         ~~~~~~~~
                                                  |--3---|
   H.                     Q          Q.          +S   S  S  e  Q.
|---------------------------------|---------------------------17------|
|---------------------------------|------------------17h18h19---------|
|---------------------------------|-19----------(19)------------------|
|-12------------------------------|-----------------------------------|
|---------------------------------|-----------------------------------|
|---------------------------------|-----------------------------------|
|
|  E  S S S S S S S S S S S S S S    S E.   +H.
|---------2-----3---3-----2---0---|--0h2----(2)-----------------------|
|-----3-----3---3-----3---3-----3-|-----------------------------------|
|-------2---------2---------2-----|-----------------------------------|
|--0----------0---------0---------|--0--------------------------------|
|---------------------------------|-----------------------------------|
|---------------------------------|-----------------------------------|
                                     W


  Dsus2/C
    E  E  S E    S  E         S  S +S S E
    |  |  | |    |  |         |  |  | | |
    /  /  / /    /  /         /  /  / / /

 ~~~~~~
                    |--3---|
   +Q     e    e    S   S  S  Q.
|-(17)---17---19---17h=19p17---------------|
|------------------------------------------|
|----------------------------19------------|
|------------------------------------------|
|------------------------------------------|
|------------------------------------------|
|
|   H              +E         E     S S E
|------------------------------------------|
|---3--------------(3)----------------3----|
|---2--------------(2)----------------2----|
|---0--------------(0)--------0---------0--|
|---3--------------(3)--------------3------|
|------------------------------------------|


  G
    E  E +S S  S S  E     E   S  S  E
    |  |  | |  | |  |     |   |  |  |
    x  /  / /  / /  /     /   /  /  /

                                    |--3--|
   +Q     E    E    S  E.    +E     S  S  S
|------------------13-17----(17)---13h17p13-|
|-------------15----------------------------|
|-(19)--------------------------------------|
|-------------------------------------------|
|-------------------------------------------|
|-------------------------------------------|
|
|   W
|-------------------------------------------|
|---0---------------------------------------|
|---0---------------------------------------|
|-------------------------------------------|
|-------------------------------------------|
|---3---------------------------------------|


  D                             Dsus4
   E  E   E   E        E.       S +S  S S  S
   |  |   |   |        |        |  |  | |  |
   x  /   /   /        /        /  /  / /  /

   ~~~
   Q.         E   a a  S   S  E    S  S S  S
|---------------------13p=10-------------------|
|-15----------------x-------------12p10--------|
|-----------------x-----------------------10p==|
|----------------------------------------------|
|----------------------------------------------|
|----------------------------------------------|
|
|  E  S S S S S S     +S   E.      S  S E
|---------2-----3-----(3)----------0-----------|
|-----3-----3--------------3----------3--------|
|-------2--------------------------------------|
|--0----------0-------------------------0------|
|----------------------------------------------|
|----------------------------------------------|


|-Rhy Fig 1 (Rhythm slashes)
  D                                  Dsus2/C                     Dsus4Dsus2/C
  E     E   S  E S Q       E   E     E      E   E    S S  S  S S S +S S S S
  |     |   |  | | |       |   |     |      |   |    | |  |  | | |  | | | |
  /     /   /  / / /       /   /     /      /   /    / /  /  / / /  / / / /

               Gtr IV
                                                  ~~~~~~~~~~~
  S  E.    +H.                       S    S S S S E.     +Q.            E
|----------------------------------|----------------------------------------|
|----------------------------------|----------------------------------------|
|-9--------------------------7-9-7-|-9b11-9-7---7-7------(7)----------------|
|---12----(12)-----------7-9-------|----------9-----------------------------|
|--------------------7-9-----------|----------------------------------------|
|----------------------------------|----------------------------------------|
| H                S S S S S S S S
|
| S  E.    +H.                       Q          S E    S +E    E    E   E
|-0h=2-----(2)---------------------|----------------------------------------|
|-3--------------------------------|-------------------3-(3)----------------|
|-2--------------------------------|--------------2------------2----2---2---|
|-0--------------------------------|--------------0------------0----0---0---|
|----------------------------------|------------3--------------3----3---3---|
|----------------------------------|----------------------------------------|
  W


  G
  E  E      S S E     E E     S S    E
  |  |      | | |     | |     | |    |
  x  /      / / /     / /     / /    /

                |-3-|   |-3-|
  E.   S    E   S S S e S S S S E.
|--------------------------------------|
|--------------------------------------|
|------9b10-----9p7---7-9p7---7-9b11---|
|-------------------9-------9----------|
|--------------------------------------|
|--------------------------------------|
|
| W
|--------------------------------------|
|-0------------------------------------|
|-0------------------------------------|
|-0------------------------------------|
|--------------------------------------|
|-3------------------------------------|


  D                         Dsus4
  E   E     E   S S  S  E   S +S  E   S
  |   |     |   | |  |  |   |  |  |   |
  /   /     /   / /  /  /   /  /  /   /

      |-3-|
  S S S S S S S E    Q         E.     S
|-------------------------------------------|
|-------------------------------------------|
|-9-7-9p7---7-------------------------9b11==|
|---------9---9-7---------------------------|
|-------------------------------------------|
|-------------------------------------------|
|
| Q         E   S S +S  S S S  E    S S
|-----------2-----3-(3)-3-----------2-------|
|-----------------3-(3)---3----3------3-----|
|-------------------------------------------|
|-0-------------0-----------0---------------|
|-------------------------------------------|
|-------------------------------------------|


  D                                   Dsus2/C               Dsus4Dsus2/C
   E      E  E  S S E S S S S E        E   E  E   S S S S S S +S S S S
   |      |  |  | | | | | | | |        |   |  |   | | | | | |  | | | |
   /      /  /  / / / / / / / /        /   /  /   / / / / / /  / / / /

  +H.                     E   E       +E  +E  S S S S H
|-----------------------------------|----------------------------------|
|-----------------------------------|----------------------------------|
|-(9)r------------------------9b11==|=(9)r(9)-7h9-7---7----------------|
|-----------------------------------|---------------9------------------|
|-----------------------------------|----------------------------------|
|-----------------------------------|----------------------------------|
|
|  S   E.   +H            s S E        W
|--0h==2----(2)-----------3---2-----|----------------------------------|
|--3----------------------3---3-----|--3-------------------------------|
|--2----------------------2---2-----|--2-------------------------------|
|--0------------------------0-------|--0-------------------------------|
|-----------------------------------|--3-------------------------------|
|-----------------------------------|----------------------------------|


                                                           end Rhy Fig 1-|
  G                                  D                DsusD   Dsus4
  E E  S  S E   E   E    E     E     E   E   E    E    S  E   S +S S S S
  | |  |  | |   |   |    |     |     |   |   |    |    |  |   |  | | | |
  x /  /  / /   /   /    /     /     /   /   /    /    /  /   /  / / / /

  H             S S S S  S   S S S   S S S S S  S E   +Q         Q
|----------------------------------|-------------------------------------||
|---------------------3--5b7-5-3---|-3-----------------------------------||
|-------------------4------------4-|---4-2-4-2---------------------------||
|-----------------5----------------|------------4-0---(0)----------------||
|----------------------------------|-------------------------------------||
|----------------------------------|-------------------------------------||
|
| Q   +S  S S S S E   S +E     E     Q       E.     S  s  S S S  E   E
|-3---(3)--------------------------|---------2---------3----2h3--2-------||
|-0---(0)--------------------------|---------3---------3----3----3---3---||
|-0---(0)---------0----------------|---------2---------2-------------2---||
|-------------0-2-----0-(0)--------|-0--------------0-----0--------------||
|---------0h2------------------2---|-------------------------------------||
|-3---(3)--------------------------|-------------------------------------||


 Verse 1
  Gtr III
|-Rhy Fig 2A
  D                            D7             D7sus4 D7
  E    E  E  S S S S E E S S   E   Q  E S S S S +S S S S
  |    |  |  | | | | | | | |   |   |  | | | | |  | | | |
  /    /  /  / / / / / / / /   /   /  / / / / /  / / / /

  Gtr I
  S E.   +H.                   H..                   E
|-0h2----(2)-----------------|---------------------------|
|-3--------------------------|-3---------------------3---|
|-2--------------------------|-2---------------------2---|
|-0--------------------------|-0---------------------0---|
|----------------------------|-3-------------------------|
|----------------------------|---------------------------|
|-Rhy Fig 2


  G                        D                        Dsus4
  E E +S S S S  E  E E E   E   E   S S E   E   S    S +S E   S
  | |  | | | |  |  | | |   |   |   | | |   |   |    |  | |   |
  x /  / / / /  /  / / /   x   /   / / /   /   /    /  / /   /

  Gtr IV
  W                        H               S S E       E   S S
|------------------------|-------------------7-----------------|
|------------------------|-------------------------------------|
|------------------------|---------------------9b11----7---7---|
|------------------------|-----------------------------------9-|
|------------------------|-------------------------------------|
|------------------------|-------------------------------------|
|
| Gtr I
| E E  E   E   +E  E E E   S S S S S S S S S S S    S  S S S S
|------------------------|-------2---------3-------------0-----|
|-0----0---0---(0)-0-0-0-|---3-----3---3-----3------3------3---|
|-0-0--0---0---(0)-0-0-0-|-----2---------2-------------2-------|
|-0-0--0---0---(0)-0-0-0-|-0---------0---------0-------------0-|
|------------------------|-------------------------------------|
|-3----------------------|-------------------------------------|


    D                         D7           D7susD7
    E     E E E E E E   S S   E  E E E E S S +S S S S
    |     | | | | | |   | |   |  | | | | | |  | | | |
    /     / / / / / /   / /   /  / / / / / /  / / / /

    S S   E Q   H             W
|---------------------------|-------------------------|
|---------------------------|-------------------------|
|---------------------------|-------------------------|
|---7h9---------------------|-------------------------|
|---------------------------|-------------------------|
|---------------------------|-------------------------|
|
| a E   a Q   E E E S S S S   H.              s S E
|-0h2---0h2-----2-----2-----|-2---------------3---2---|
|---3-----3-----3-----3-----|-1---------------3---3---|
|---2-----2---2---2-----2p0-|-2---------------2---2---|
|---0-----0---------0-------|-0-----------------0-----|
|---------------------------|-------------------------|
|---------------------------|-------------------------|

                                          end Rhy Fig 2A-|
  G                      D            Dsus4
  E  E S S S S E E E E   E E E    E    E    S S +S S S S
  |  | | | | | | | | |   | | |    |    |    | |  | | | |
  x  / / / / / / / / /   x / /    /    /    / /  / / / /

  W                      Q   E.     S  S  S S S  Q
|----------------------|---------------------------------||
|----------------------|---------------------------------||
|----------------------|------------------2-4------------||
|----------------------|------------2h=4------0----------||
|----------------------|---------------------------------||
|----------------------|---------------------------------||
|
| H.               E E   E E S  S S S +E    E    Q
|----------------------|-----2------3-(3)---2----2-------||
|-0----------------0-0-|---3----3---3-(3)---3----3-------||
|-0----------------0-0-|--------------------2----2-------||
|-0----------------0-0-|-0--------0---------0------------||
|----------------------|---------------------------------||
|-3--------------------|---------------------------------||
                                           end Rhy Fig 2-|

 Chorus
 w/Rhy Fig 1
    Q      S S S S S S E E E   W
|----------------------------|-----------------------------|
|----------------------------|-----------------------------|
|----------------2-4-2-4-2---|-----------------------------|
|------------2-4-------------|-----------------------------|
|----------------------------|-----------------------------|
|----------------------------|-----------------------------|
|
| a E a Q.         s S E E E   Q.     S S S S E    E   E
|-0h2-0h2----------3---2-2---|----------------0--------0---|
|---3---3----------3---3-3---|-3----------3---3----3---3---|
|---2---2----------2---2-2---|-2----------2--------2-------|
|---0---0------------0-----0-|-0------0-0---0--------------|
|----------------------------|-3---------------------------|
|----------------------------|-----------------------------|
|-Rhy Fig 3


                                           |--3--|
  W                     Q       S e      S S S   S S S  Q
|---------------------|------------------------------------------|
|---------------------|------------------------------------------|
|---------------------|-----------9b11---7-9p7-----7----7--------|
|---------------------|--------------------------9---9-----------|
|---------------------|------------------------------------------|
|---------------------|------------------------------------------|
|
| Q   Q     Q   Q       S S S S E      S S s   S   S S  S S S S
|---------------------|-------2--------2---3-------2h3------0----|
|-0---0-----0---0-----|---3-----3------3---3-------3------3---3--|
|-0---0-----0---0-----|-----2---------------------------2--------|
|-0---0-----0---0-----|-0----------------0-----0-----------------|
|---------------------|------------------------------------------|
|-3-------------------|------------------------------------------|



  Q       E.   S S S E    Q       W
|-------------------------------|----------------------------|
|-------------------------------|----------------------------|
|-------------------------7-----|----------------------------|
|--------------7-9-7------------|----------------------------|
|-------------------------------|----------------------------|
|-------------------------------|----------------------------|
|
| S E.   +Q      s S Q.           W
|-0h2----(2)-----3---2----------|----------------------------|
|-3--------------3---3----------|-3--------------------------|
|-2--------------2---2----------|-2--------------------------|
|-0----------------0------------|-0--------------------------|
|-------------------------------|-3--------------------------|
|-------------------------------|----------------------------|



  Q   E.     S     Q        E   S S   S S e S S S S +Q          Q
|-----------------------------------|-----------------------------------||
|-----------------------------------|-----------------------------------||
|------------9b10---------------2-0-|-2---------------------------------||
|-----------------------------------|---3-0-0-----0-(0)-----------------||
|-----------------------------------|---------0-2-----------------------||
|-----------------------------------|-----------------------------------||
|
| Q   Q           +S  S S S S S E     Q     Q        s  S Q.
|-----------------------------------|-------2--------3----2-------------||
|-0---0-----------(0)---------------|-------3--------3----3-------------||
|-0---0-----------(0)---------------|-------2--------2----2-------------||
|-0---0-----------(0)-3p2-0-----0---|-0-----------------0---------------||
|---------------------------2-2-----|-----------------------------------||
|-3---------------------------------|-----------------------------------||
                                                          end Rhy Fig 3-|

 Verse 2
  w/Rhy Fig 2A
  Gtr I
  H.               S E   S   S S Q.    +Q         e   e
|-2------------------2-----|-----2-----(2)--------3---2---|
|-3------------------3-----|---1------------------3---3---|
|-2------------------2-----|-2--------------------2---2---|
|-0----------------0-----0-|------------------------------|
|--------------------------|------------------------------|
|--------------------------|------------------------------|



  Gtr IV
  W                      Q     E.      S  S   e       S  e    e
|----------------------|--------------17----------------17-----------|
|----------------------|---------------------17b19---15------17b19---|
|----------------------|---------------------------------------------|
|----------------------|---------------------------------------------|
|----------------------|---------------------------------------------|
|----------------------|---------------------------------------------|
|
| Gtr I
| Q    Q       E E E E   E S S S  S S  S +S   S    S  S  E    S    S
|----------------------|-------2-------3-(3)--2---------------0------|
|-0----0-------0-0-0-0-|---3------3----3-(3)-------3-----3---------3-|
|-0----0-------0-0-0-0-|-----2---------------------------------------|
|-0----0-------0-0-0-0-|-0----------0-----------------0--------------|
|----------------------|---------------------------------------------|
|-3--------------------|---------------------------------------------|



             ~~~
   S  S   e  Q    H            H        E.   S  E.       +S
|---------------------------|----------------7----------------|
|--------15-15--------------|---------------------------------|
|-14-16---------------------|-------------------9b11r====(9)p=|
|---------------------------|---------------------------------|
|---------------------------|---------------------------------|
|---------------------------|---------------------------------|
|
|  S  E.    +H.                H.               E      E
|--0h=2-----(2)-------------|-^2----------------2------2------|
|---------------------------|-^1----------------1------1------|
|---------------------------|-^2----------------2------2------|
|--0------------------------|-^0------------------------------|
|---------------------------|-^0------------------------------|
|---------------------------|---------------------------------|
   W



  S S E Q       H         W
|-----------------------|--------------------------||
|-----------------------|--------------------------||
|-7h9p7-----------------|--------------------------||
|-----------------------|--------------------------||
|-----------------------|--------------------------||
|-----------------------|--------------------------||
|
| Q     Q       Q   Q     E S S Q   E E    E   E
|-----------------------|-------2------------------||
|-0-----0-------0---0---|---3-------3-3----3---3---||
|-0-----0-------0---0---|-----2-----2-2----2---2---||
|-0-----0-------0---0---|-0------------------------||
|-----------------------|--------------------------||
|-3---------------------|--------------------------||


 Chorus
 w/Rhy Fig 1
                                                    ~~~
  H            Q      E  E        +Q     +E   S  S  H
|------------------------------|--------------------------------------|
|-----------------------17b19==|=(17)r==(17)-15h17p15-----------------|
|------------------------------|--------------------------------------|
|------------------------------|--------------------------------------|
|------------------------------|--------------------------------------|
|------------------------------|--------------------------------------|
|
| E E S S S S +S  S E Q            e  E   E.     S +Q.            S S
|---2-2-----3-(3)---2----------|--------------------------------------|
|---3---3---3-(3)---3----------|---3--3---3------3-(3)----------------|
|---2-----2---------2----------|---2--2---2------2-(2)------------2p0-|
|-0---------------0------------|---0--0---0------0-(0)------------0---|
|------------------------------|---3--3---3------3-(3)----------------|
|------------------------------|--------------------------------------|
|-Rhy Fig 4


                 |-3-|
  Q   S e      S S S S E Q       W
|------------------------------|----------------------------|
|------------------------------|----------------------------|
|-------9b11---7-9p7---7-------|----------------------------|
|--------------------9---------|----------------------------|
|------------------------------|----------------------------|
|------------------------------|----------------------------|
|
| Q   Q          Q       Q       E E Q     s S E    E   E
|------------------------------|---2-2-----3---2----2-------|
|-0---0----------0-------0-----|---3-3-----3---3----3-------|
|-0---0----------0-------0-----|---2-2-----2---2----2-------|
|-0---0----------0-------0-----|-0-----------0--------------|
|------------------------------|----------------------------|
|-3----------------------------|----------------------------|
                                              end Rhy Fig 4-|


                                                      |--3---|
  E  e e S S S S S S  s  E.       Q     S S    +S  S  S  S   S S S  Q
|-------------------------------|-------------------------------------------|
|-------------------------------|-------------------------------------------|
|-------------------------------|---------9b11r(9)-7--9p=7-----7h9--7-------|
|----7-7---7-----7-7--9---------|----------------------------9--------------|
|--------9-----9----------------|-------------------------------------------|
|-------------------------------|-------------------------------------------|
|
| Q.     E   S S S S +E     S S   E S S S S     S  S +S    S   S S  S S E
|-2----------2------------------|-------0------------------3------------0---|
|-3------3-----3---3-(3)----3---|---3-----3--------3-(3)-------3----3-------|
|-2-----------------------------|-----2-------------------------------2-----|
|-0--------------0--------------|---------------0----------------0----------|
|-----------------------------0-|-3-----------------------------------------|
|-------------------------------|-------------------------------------------|



  W                   H         Q        S S e
|-------------------|----------------------------||
|-------------------|----------------------------||
|-------------------|------------------------7---||
|-------------------|----------------------9-----||
|-------------------|----------------------------||
|-------------------|----------------------------||
|
| Q   Q     Q   E E   E E E S S e   E    S S S S
|-------------------|-2---2-----3---2----0-----0-||
|-0---0-----0-----0-|-3---3-----3---3------3---3-||
|-0---0-----0---0-0-|-2---2-----2---2--------2---||
|-0---0-----0---0---|-0---0-0-0------------------||
|-------------------|----------------------------||
|-3-----------------|----------------------------||


 Guitar Solo
 w/Rhy Fig 1 + Rhy Fig 4 x1.5
  E     +Q.         +E     E      +S   E.
|---------------------------------------------|
|---------------------------------------------|
|-9b11==(9)---------(9)r---9pb11==(9)r-9b11---|
|---------------------------------------------|
|---------------------------------------------|
|---------------------------------------------|



                 ~~~~~~~~~~~~~~~~~~             ~~~~~~~~~~
  E.     +S  S S E   +Q        +S  S S S       +Q    +S   S S S S S S S E   S S
|--------------------------------------------|----------------------------------|
|--------------------------------------------|----------------------------------|
|-9b11r==(9)-7h9-7---(7)-------(7)---7-9b11==|=(9)---(9)r-7-9---7-7-9---7---9-7-|
|----------------------------------9---------|----------------9-------9---------|
|--------------------------------------------|----------------------------------|
|--------------------------------------------|----------------------------------|



                                                                                 |-3-|
  S    S S S S S S S S E.     +E    E     S E      S E      S S  E    S S    S S S S S
|---------------------------------------|-7--------7--------7---------7----------------|
|---------------------------------------|----------------------------------------------|
|-9b11-9-7---7--------------------------|---9b11-----9b11-----9---------9b11---7-9p7---|
|----------9---9-7---7-7------(7)-------|--------------------------------------------9-|
|------------------9--------------------|----------------------------------------------|
|---------------------------------------|----------------------------------------------|



                     ~~~~~~
             |-3-|
  S s    s s S S S s S +Q        +S  E   S
|--------------------------------------------|
|--------------------------------------------|
|-7-9b11-9-7-9p7---7-7-(7)-------(7)-0-------|
|----------------9-----------------------0---|
|--------------------------------------------|
|--------------------------------------------|



                           |--3--|
  S S e e   S S S e      S s S   S S S
|-----------------------------------------|
|-----------------------------------------|
|-----7-7---7---7-9b11---7-9p7-----7-9b11r|
|-7-9---------9------------------9--------|
|-----------------------------------------|
|-----------------------------------------|
|
| Q     S S S S E      S S S   S   E
|-----------------------------------------|
|------------------------------0----------|
|---------------0--------0----------------|
|-------------0--------2---0--------------|
|---------0h2----------------------2------|
|-----------------------------------------|
|-Rhy Fill 1


   |-3--|
  +S  S S S S S S E H
|-------------------------------------||
|-------------------------------------||
|-(9)p7---7---7-7---------------------||
|-------9---9-----9-------------------||
|-------------------------------------||
|-------------------------------------||
|
|  H                s S Q.
|-------------------3---2-------------||
|-------------------3---3-------------||
|-------------------2---2-------------||
|--0------------------0---------------||
|-------------------------------------||
|-------------------------------------||
                       end Rhy Fill 1-|

 Verse 3
 w/Rhy Fig 2 + 2A
  W                            H        Q        S  S  S  S
|----------------------------|---------------------15-17-15-|
|----------------------------|------------------16----------|
|----------------------------|------------------------------|
|----------------------------|------------------------------|
|----------------------------|------------------------------|
|----------------------------|------------------------------|


         ~~~~~
   e     Q.             H
|--------------------------------|
|-17b19-17b19--------------------|
|--------------------------------|
|--------------------------------|
|--------------------------------|
|--------------------------------|


  S  S  E        +E     S  S  E    e    e    e
|---17-------------------------------------------|
|------17pb19r==(17)---15-17-15--------15---15---|
|---------------------------------16-------------|
|------------------------------------------------|
|------------------------------------------------|
|------------------------------------------------|


     S  S    Q.     H             H        Q      S e      S
|-------------------------------|----------------------------|
|-------------------------------|----------------------------|
|---14h16p==14------------------|-------------------9b11---7-|
|-------------------------------|----------------------------|
|-------------------------------|----------------------------|
|-------------------------------|----------------------------|


       ~~
  e    Q.         H         Q   S S S S  S  S S S  S S E
|-------------------------|-----3-2------------------------||
|-------------------------|---------3----------------------||
|-9b11-7------------------|-----------2--0-----------------||
|-------------------------|-----------------4-2-0------0---||
|-------------------------|------------------------0h2-----||
|-------------------------|--------------------------------||



 Chorus
 Rhy Fig 1 + 3
    W                        E  e e E   H
|--------------------------|-----------------------------|
|--------------------------|-----------------------------|
|--------------------------|----7-7----------------------|
|--------------------------|-----------------------------|
|--------------------------|-----------------------------|
|--------------------------|-----------------------------|


  W                             W
|-----------------------------|---------------------------|
|-----------------------------|---------------------------|
|-----------------------------|---------------------------|
|-----------------------------|---------------------------|
|-----------------------------|---------------------------|
|-----------------------------|---------------------------|



  Q       e  S S S E.      +Q        E.   S S S S S S E.     +Q
|----------------------------------|------------------------------------|
|---------7--7-8-7-----------------|------8-7---7-8-7-------------------|
|------------------7-------(7)-----|----------7-------7------(7)--------|
|----------------------------------|------------------------------------|
|----------------------------------|------------------------------------|
|----------------------------------|------------------------------------|


                                                       ~~~~~~
  H          Q        E   E   S S e Q   Q         E    E
|---------------------------|----------------------------------||
|---------------------------|-------------------------17b19====||
|---------------------------|-----7----------------------------||
|-------------------------9-|-7-9------------------------------||
|---------------------------|----------------------------------||
|---------------------------|----------------------------------||



 Guitar Solo
 w/Rhy Fig 1 + 4
    ~~~~~
   +S   +S   S  S  E    e       Q       E      a       +E
|----------------------------------------------------------|
|-(17)r(17)-15----15---17b19-----------17b19r(17)b19==(17)r|
|--------------16------------------------------------------|
|----------------------------------------------------------|
|----------------------------------------------------------|
|----------------------------------------------------------|


                                                                            ~~~~~~
    a       +S   +S   S  S  S   S      +E       E.      S      +S   +S   S  S
|----------------------------------------------------------------------------------|
|-(17)b19==(17)r(17)-15----15--17b19==(17)r\-----------17b19==(17)r(17)-15-17b19===|
|-----------------------16---------------------------------------------------------|
|----------------------------------------------------------------------------------|
|----------------------------------------------------------------------------------|
|----------------------------------------------------------------------------------|


    ~~~~~
                  |--3--|
   +Q     +S   S  S  S  S  E  E     a      +S   +S   S  S
|---------------------------------------------------------|
|-(17)r==(17)-15-17p15----15-17b19r17b19==(17)r(17)-15-17-|
|----------------------16---------------------------------|
|---------------------------------------------------------|
|---------------------------------------------------------|
|---------------------------------------------------------|


   E  S  S  S  S  E    H
|---------------------------------------|
|-15-15----15---------------------------|
|-------16----16-14\--------------------|
|---------------------------------------|
|---------------------------------------|
|---------------------------------------|


                  ~~              ~~~~~          ~~
   Q       Q      Q      Q        Q       Q      Q        Q
|-17b19---17-------------------|-17b19---17-----------------------|
|----------------15------------|----------------15----------------|
|-----------------------16-----|-------------------------16-------|
|------------------------------|----------------------------------|
|------------------------------|----------------------------------|
|------------------------------|----------------------------------|
|
|  E    E  E E    Q      Q        Q       Q      Q        Q
|--3-------2------3------2-----|----------------------------------|
|--3-------3------3------3-----|--3-------3------3--------3-------|
|--2-------2------2------2-----|--2-------2------2--------2-------|
|-------0----0----0------0-----|--0-------0------0--------0-------|
|------------------------------|--3-------3------3--------3-------|
|------------------------------|----------------------------------|
|-Rhy Fig 5


   ~~~~~                       ~~~~~~~~~
   Q       Q        S      +S  E    +S   S  E
|-17b19---17----------------------------------|
|------------------17pb18r(17)15---(15)----15-|
|---------------------------------------16----|
|---------------------------------------------|
|---------------------------------------------|
|---------------------------------------------|
|
|  Q       S S S S +S       S  S S   E      E
|---------------------------------------------|
|---------------------------------------------|
|----------------0-(0)---------------0--------|
|------------0h2------------0h=2-0------------|
|-------------------------------------------2-|
|---------------------------------------------|



   ~~                  ~~
   Q    S  S  S     S  Q         Q
|----------------------------------------||
|-15---15----17b18-17-15-----------------||
|---------16-----------------------------||
|----------------------------------------||
|----------------------------------------||
|----------------------------------------||
|
|  H                   s S Q.
|----------------------3---2-------------||
|----------------------3---3-------------||
|----------------------2---2-------------||
|--0---------------------0---------------||
|----------------------------------------||
|----------------------------------------||
                           end Rhy Fig 5-|

 Chorus
  Gtr I
  E S S S S S S +S  S Q.     W          W
|-------2-----3-(3)---2----|----------|-3----|
|---3-----3---3-(3)---3----|-3--------|-0----|
|-----2--------------------|-2--------|-0----|
|-0---------0-------0------|----------|------|
|--------------------------|-3--------|------|
|--------------------------|----------|-3----|


  Gtr III
   W
  Gtr IV
             ~~~~~                 ~~
   E        +Q          E    S  S  E   Q
|----------------------------------------------|
|-17b19====(17)r-------15---17p15-15-----------|
|----------------------------------------------|
|----------------------------------------------|
|----------------------------------------------|
|----------------------------------------------|
|
| Gtr I
|  S     S   S   S S S  s S  s  S  s S S S S S
|----------------2------2----3-----2-------0---|
|--------3---------3----3----3-----3---3-----3-|
|------------2---------------------------2-----|
|--0-----------------0----0-----0----0---------|
|----------------------------------------------|
|----------------------------------------------|


  D               D5/C
  W               W
  |               |
  /               /

                                      ~
  W               E S S S e    S e    E E E
|---------------|---------------------------|
|---------------|---------------------------|
|---------------|-------7-9b10-7-9b11-7-7---|
|---------------|---7-9---------------------|
|---------------|---------------------------|
|---------------|---------------------------|
|
| S E. +H.        W
|-0h2--(2)------|---------------------------|
|---------------|-3-------------------------|
|---------------|-2-------------------------|
|-0-------------|---------------------------|
|---------------|-3-------------------------|
|---------------|---------------------------|
  W


  G                          D
  W                          W
  |                          |
  /                          /

                      ~
                               |--3--|
  E S     +S  +E. +S  H      E S S   S S S S S  S  S e   Q
|--------------------------|-------------------------------------|
|--------------------------|-------------------------------------|
|---9b11==(9)-(9)r(9)p7----|---9p7-----7-------------7-----------|
|--------------------------|---------9---9-7----7--9-------------|
|--------------------------|-----------------9-------------------|
|--------------------------|-------------------------------------|
|
| W                          E S   S   S S S S +S  S S S S S S S
|--------------------------|-----------2-----3-(3)-3---------2---|
|-0------------------------|---3---------3---3-(3)---3---3-------|
|-0------------------------|-------2-----------------------2-----|
|-0------------------------|-0-------------0-----------0-------0-|
|--------------------------|-------------------------------------|
|-3------------------------|-------------------------------------|


w/Rhy Fig 1 x2 + Rhy Fig 3(except where replaced)
    H            Q     E  E        +E    S  S  S  S  e    e   E    Q
|-------------------------------|------------------------------------------|
|------------------------17b19==|=(17)r-15-17-15----15---15----------------|
|-------------------------------|----------------16------------------------|
|-------------------------------|------------------------------------------|
|-------------------------------|------------------------------------------|
|-------------------------------|------------------------------------------|




  H            Q        E.      S   S S  S S  S S  S S  S S e      S  S e
|------------------------------10-|---7-10-7----7---------------------------|
|---------------------------------|----------10---10-7----------------------|
|---------------------------------|--------------------10-9-7------7--------|
|---------------------------------|-----------------------------------9-7---|
|---------------------------------|-----------------------------------------|
|---------------------------------|-----------------------------------------|
|
| Q   S S S S +S  S S S E    E      E    S S  S S  S S  e   S   S +E    E
|---------------------------------|-----------------------------------------|
|---------------------------------|-----------------------------------------|
|-----------0-(0)-------0---------|-----------0-0--2-0--4---2b3-0-(0)-------|
|-------0h2-------0h2-0-----------|------2-2--------------------------------|
|----------------------------2----|-----------------------------------------|
|---------------------------------|-----------------------------------------|



  Q       E.   S S S e    e   E   S e      S e E   E   E    Q
|-------------------------------|------------------------------------|
|-------------------------------|------------------------------------|
|-------------------------7-----|---9b11---7-9-7---7---7-------------|
|------------------7-9--------7-|------------------------------------|
|--------------7h9--------------|------------------------------------|
|-------------------------------|------------------------------------|


w/Rhy Fill 1
                  |--3---|
  Q   E   S    S  S  S   S E   Q     W
|----------------------------------|---------------------------|
|----------------------------------|---------------------------|
|---------9b11-7--9p=7-------------|---------------------------|
|------------------------9---------|---------------------------|
|----------------------------------|---------------------------|
|----------------------------------|---------------------------|


w/Rhy Fig 3 (1st 6 bars)
    Q      S S S S S S E Q     Q    S S S S S S S S     Q
|----------------------------|----------------------------------|
|----------------------------|----------------------------------|
|----------------------------|--------------------9b11----------|
|------------------7-9-7-----|------------7-7-9-7---------------|
|------------7h9-9-----------|--------7h9-----------------------|
|----------------------------|----------------------------------|



                  |--3---|
  Q   E   S    S  S  S   S E   Q       Q   S  T T S S S S S  S  Q
|------------------------------------|--------------------------------|
|------------------------------------|--------------------------------|
|---------9b10-7--9p=7-----7---------|-------10p9p7---7---------------|
|------------------------9-----------|--------------9---9-7-----------|
|------------------------------------|-----------------------9--------|
|------------------------------------|--------------------------------|



                            ~
  E    S S  e  S S S S e    Q       S S e S S S S S S S S     +S   S E
|---------------------------------|--------------------------------------|
|---------------------------------|--------------------------------------|
|------7-7--7---------------------|-------7-7-----7---7-9b11==(9)r-7-----|
|------7-7--7--7---7-9-7----7-----|-------7-7-7---7-9--------------------|
|----------------9----------------|---7-9-------9------------------------|
|---------------------------------|--------------------------------------|


w/Rhy Fill 2
                                             |-3--|
  S E      S S S E    H              S S    +S  S S Q   H
|----------------------------------|--------------------------------------||
|----------------------------------|--------------------------------------||
|---9b11---7-7-9-------------------|---9b11r(9)p7-------------------------||
|----------------------------------|--------------9-----------------------||
|----------------------------------|--------------------------------------||
|----------------------------------|--------------------------------------||


 Guitar Solo
 w/Rhy Fig 1 + Rhy Fig 5 x2
                                            ~
  E Q.           Q     E E   E    E S S E   H
|--------------------------|---------------------------------|
|--------------------------|---------------------------------|
|---9b11---------9b11--9-7-|-9b11-9-7---7---7----------------|
|--------------------------|----------9----------------------|
|--------------------------|---------------------------------|
|--------------------------|---------------------------------|



                      ~~~~~~~~~~~~~
  E E     +S  +S S S  Q        +S  S S S
|--------------------------------------------|
|--------------------------------------------|
|---9b11==(9)r(9)7-9--7--------(7)---7-9b11==|
|----------------------------------9---------|
|--------------------------------------------|
|--------------------------------------------|


       |-3-|
  +E   S S S S S E   +E    E     S  E.
|------------------------------------------|
|----------------------------------12b13---|
|-(9)r-9p7---7---------------------12b14---|
|----------9---9-7---(7)-------------------|
|------------------------------------------|
|------------------------------------------|


   E.      S      +E    E        +S    E.        E       a      +E
|-------------------------------------------------------------------|
|-12b13---12b13==(12)r-12b13====(12)r-12b13-----12b13---12b13==(12)r|
|-12b14---12b14==(12)r-12b14====(12)r-12b14-----12b14---12b14==(12)r|
|-------------------------------------------------------------------|
|-------------------------------------------------------------------|
|-------------------------------------------------------------------|


                 ~~~~~~~~~
   +E   S  S  E  E    +Q         S S S S
|-----------------------------------------|
|-(12)-10-12-10-10---(10)-----------------|
|-(12)------------------------------------|
|-----------------------------------------|
|----------------------------------0-7-9--|
|-----------------------------------------|


                            ~~~
              |--3---|
  S S S S    +S  S   S S S  Q        S S S S
|--------------------------------------------|
|--------------------------------------------|
|-----7-9b11r(9)p7-----7----7----------7-9-7-|
|-7-9----------------9---9-----------9-------|
|--------------------------------------------|
|--------------------------------------------|


               ~~~~~~
  S    S S S E E +H
|------------------------------------||
|------------------------------------||
|-9b11-9-7---7-7-(7)-----------------||
|----------9-------------------------||
|------------------------------------||
|------------------------------------||



 Outro
  Gtr IV
                                     ~~~~~~~
  W                                  H             +E          E   E        +E
|--------------------------------|------------------------------------------------|
|--------------------------------|--17b19=========(17)r-----------17pb19r==(17)p==|
|--------------------------------|------------------------------------------------|
|--------------------------------|------------------------------------------------|
|--------------------------------|------------------------------------------------|
|--------------------------------|------------------------------------------------|
|
| Gtr II
| ~~~~~~~~~~~~~~        ~~~~~~~~~~~~~~~~~~~                    ~~~~~~~~~~~~~~~~~~~~
|           |--3--|                                 |---3---|
| Q.       +S  S  S  E  Q.          +Q       e  e   S    S  S  Q.
|--------------------------------|------------------------------------------------|
|----------------------10--------|-(10)-----10-12--10h==12p10---------------------|
|-7--------(7)h9h10-11-----------|------------------------------------------------|
|--------------------------------|----------------------------12------------------|
|--------------------------------|------------------------------------------------|
|--------------------------------|------------------------------------------------|
|
| Gtr I
| S E. +H                  S S E     H.                            S     S   S  S
|-0h2--(2)-------------------2---|------------------------------------------------|
|-3--------------------------3---|---3--------------------------------------------|
|------------------------------2-|---2-----------------------------------0------0-|
|-0------------------------------|---0---------------------------------------0----|
|--------------------------------|---3-----------------------------3--------------|
|--------------------------------|------------------------------------------------|


        H.=H
    H         Q         E.        S
|-----------------------------------|
|--15----------------------------14-|
|-----------------------------------|
|-----------------------------------|
|-----------------------------------|
|-----------------------------------|
|
|~~~~~~
|  +Q   E  E  S  E  S  +S   S  S  S
|-----------------------------------|
|-----------------------------------|
|------------10-14-10-(10)-14-10----|
|-(12)----12---------------------14-|
|-----------------------------------|
|-----------------------------------|
|
|   H.                  E.        S
|-----------------------------------|
|---0-------------------------------|
|---0-------------------------------|
|---0-----------------------------0-|
|-----------------------------------|
|---3-------------------------------|


 Freely
   S  S  S  S  S   S  S S S  S  S S S S S S   S S  S S  S  E. H
|-15----14----12-----10---8-----------------|----------------------*|
|------------------------------10---8---7---|-5----3----1----------*|
|-16-14----12-----11----9-------------------|--------------2s11----*|
|---------------------------10----8---7---5-|---4----2-------------*|
|-------------------------------------------|----------------------*|
|-------------------------------------------|----------------------*|
|
|  H                      H                   W
|-------------------------------------------|----------------------*|
|-------------------------------------------|----------------------*|
|-------------------------------------------|----------------------*|
|-12----------------------------------------|----------------------*|
|-------------------------------------------|----------------------*|
|-------------------------------------------|----------------------*|
|
|  E     S  S +S   S  S S E     E   E   E     S E.     +H.
|--7--------5-(5)-----3---2---------0-------|-0h2------(2)---------*|
|--8--------7-(7)-----5---3---------3-------|-3--------------------*|
|-------------------------2---------2-------|-2--------------------*|
|--------0---------0----0-------0-------0---|----------------------*|
|-------------------------------------------|----------------------*|
|-------------------------------------------|----------------------*|SITE STUFF
• Home 
• Tabs 
• Tab Symbols 
• Disclaimer 
• Page Back 
• Page Forward 
• Page ReLoad 
• Page Top 

User(s) On Site = 

9598877
pages accessed since
1 - 1 - 02 
Don't click it's just a counter 
 

© Mike's Guitar Site™
1998 - 2003
all rights reserved. Reproduction and/or distribution of any portion of this site without prior written permission from author is strictly prohibited. 
PRINTER FRIENDLY PAGE

For a printer friendly format for this tab [ click here ] 





POWER TABS

Real sheetmusic (as in books and mags) with MIDI playback
available from the Marshall Tucker Band tab link in the RELATED PAGES box

These tabs are made available to help guitarists learn the track not as a Free Webmasters Resource. 




GET CDs @

 GET SHEETMUSIC @

  RELATED PAGES
• Classic / New Rock Tabs 

• Blues Tabs 

• Marshall Tucker Band Sites




SITE SPONSOR





Comments


Popular Marshall Tucker Band tabs & chords
Can't You See Bass Tabs
Change Is Gonna Come Chords
I Should Have Never Started Loving You Chords
Never Trust A Stranger Chords
Can't You See Tabs
Cant You See Intro Tabs
Change Is Gonna Come Ukulele
Desert Skies Ukulele
Texas On My Mind Ukulele
This Ol Cowboy Ukulele


Song lyrics



↑ Back to top | Tablatures and chords are parodies/interpretations of the original songs. You may use it for private study, scholarship, research or language learning purposes only
© 2014 AZChords.com Contact us | Privacy policy | DMCA | Add/correct tabs | Request tabs | Top 50 tabs