» » »

Marshall Tucker Band, Can't You See Tabs (ver.2)

Artists:  A B C D E F G H I J K L M N O P Q R S T U V W X Y Z # 

Can't You See Tabs (ver.2)

Marshall Tucker Band Tabs
 Rating:
4/5 (4 votes)
Can't You See lessons Tabs too difficult? Try these video lessons and learn fast
1
                "(Intro)
this is good acoustic song

this is just the intro.  Its very nice
e---2--3--2-------3----------3---------2--3--2----
b---3----3--3---1---1-----------0------3----3--3--
g--2-2-------2--0--0--0---0----0--0---2-2-------2-
d-0------------2-2-----2--0--------0-0------------
a-------------3----------2-2----------------------
e-----------------------3-------------------------

looks tricky, doesn't it? ' well its easy once you get the hang of it.  
And if its too hard, the CHORDS for the whole song just go 
 D     C     G   then back to D
-2-   -0-   -3-
-3-   -1-   -0-
-2-   -0-   -0-
-0-   -2-   -0-
-0-   -3-   -2-
-x-   -0-   -3-
"            
Submit corrections

comments powered by Disqus
↑ Back to top | Marshall Tucker Band Tabs for Can't You See. Lyrics for acoustic guitar and electric guitar. 1 Tablatures and chords are parodies/interpretations of the original songs. You may use it for private study, scholarship, research or language learning purposes only