>
 >
Can't You See

Can't You See Bass Tabs

Marshall Tucker Band - Can't You See chords, tabs, tablatures, lyrics

Guitar lessons | Add/correct | Request | Top 50 tabs Artists:  A B C D E F G H I J K L M N O P Q R S T U V W X Y Z 0-9

Can't You See Bass Tabs – Marshall Tucker Band

CD, Sheet music, Poster

Do you like Can't You See? Share with your friends now
Bass TabsChordsTabsTabs v2Tabs v3Tabs v4
|------------|--------|
|------------|--------|
|------------|--------|
|------------|--------|


  H    Q  S S E    E S S E S S E S S S S S S
|----------------|---------------------------|
|----------------|---------------------------|
|-----------0-2/-|-5-x-5-5-x-5-5-x-5-5-0-5-0-|
|----------------|---------------------------|


  E S S E S S E S S E S S   E S S E S S E S S E S S
|-------------------------|-------------------------|
|-------------------------|-5-x-5-5-x-5-5-x-5-5-x---|
|-3-x-3-3-x-3-3-x-3-3-x-3-|-----------------------3-|
|-------------------------|-------------------------|


  E S S E S S E S S E S S     E S S E S S E S S E S S
|-------------------------||--------------------------|
|-------------------------||o-------------------------|
|-5-x-5-5-x-5-5-x-5-5-x-5-||o-5-x-5-5-x-5-5-x-5-5-x-5-|
|-------------------------||--------------------------|


  E S S E S S E S S E S S   E S S E S S E S S E S S
|-------------------------|-------------------------|
|-------------------------|-5-x-5-5-x-5-5-x-5-5-x---|
|-3-x-3-3-x-3-3-x-3-3-x-3-|-----------------------3-|
|-------------------------|-------------------------|


                                 1st Verse
  E S S E S S E S S E S S         E S S E S S E S S S S S S
|--------------------------||-||-----------------------------|
|-------------------------o||-||o----------------------------|
|-5-x-5-5-x-5-5-x-5-5-x-5-o||-||o-5-x-5-5-x-5-5-x-5-5-0-5-0--|
|--------------------------||-||-----------------------------|


  E S S E S S E S S E S S   E S S E S S E S S E S S
|-------------------------|-------------------------|
|-------------------------|-5-x-5-5-x-5-5-x-5-5-x---|
|-3-x-3-3-x-3-3-x-3-3-x-3-|-----------------------3-|
|-------------------------|-------------------------|


                                 Chorus
  E S S E S S E S S E S S         E S S E S S E S S S S S S
|--------------------------||-||-----------------------------|
|-------------------------o||-||o----------------------------|
|-5-x-5-5-x-5-5-x-5-5-x-5-o||-||o-5-x-5-5-x-5-5-x-5-5-0-5-0--|
|--------------------------||-||-----------------------------|


  E S S E S S E S S E S S   E S S E S S E S S E S S
|-------------------------|-------------------------|
|-------------------------|-5-x-5-5-x-5-5-x-5-5-x---|
|-3-x-3-3-x-3-3-x-3-3-x-3-|-----------------------3-|
|-------------------------|-------------------------|


  1.                          2.
  E S S E S S E S S E S S     E S S E S S E S S E S S
|--------------------------||-------------------------||
|-------------------------o||-------------------------||
|-5-x-5-5-x-5-5-x-5-5-x-0-o||-5-x-5-5-x-5-5-x-5-5-x-5-||
|--------------------------||-------------------------||


   2nd Verse
    E S S E S S E S S S S S S   E S S E S S E S S E S S
||----------------------------|-------------------------|
||o---------------------------|-------------------------|
||o-5-x-5-5-x-5-5-x-5-5-0-5-0-|-3-x-3-3-x-3-3-x-3-3-x-3-|
||----------------------------|-------------------------|


                            1.
  E S S E S S E S S E S S   E S S E S S E S S E S S
|-------------------------|--------------------------||
|-5-x-5-5-x-5-5-x-5-5-x---|-------------------------o||
|-----------------------3-|-5-x-5-5-x-5-5-x-5-5-x-0-o||
|-------------------------|--------------------------||


                             Chorus
  2.
  E S S E S S E S S E S S     E S S E S S E S S S S S S
|-------------------------||----------------------------|
|-------------------------||o---------------------------|
|-5-x-5-5-x-5-5-x-5-5-x-5-||o-5-x-5-5-x-5-5-x-5-5-0-5-0-|
|-------------------------||----------------------------|


  E S S E S S E S S E S S   E S S E S S E S S E S S
|-------------------------|-------------------------|
|-------------------------|-5-x-5-5-x-5-5-x-5-5-x---|
|-3-x-3-3-x-3-3-x-3-3-x-3-|-----------------------3-|
|-------------------------|-------------------------|


  1.                          2.
  E S S E S S E S S E S S     E S S +E  S S S S S S S S S S
|--------------------------||--------------------------------||
|-------------------------o||--------------------------------||
|-5-x-5-5-x-5-5-x-5-5-0-3-o||-5-------------------------3-4--||
|--------------------------||---0-2-(2)-3-3-3-4-4-4-5-5------||


   Guitar Solo
    E. S E S S E. S S S E   E. S E S S E. S S S E
||-------------7--7-------|------------7--7-------|
||o--------5-7------5-6-7-|--------5-7------5-6-7-|
||o-5--5-5----------------|-3--3-3----------------|
||------------------------|-----------------------|


                               1.
  E. S S S E +E  S S S S S S   E S S +E  S S S S S S S S S S
|----------------------------|---------------------------------||
|-5--------5-(5)-----5-------|--------------------------------o||
|----0-3h5-------3h5---0-3-4-|-5-------------------------3-4--o||
|----------------------------|---0-2-(2)-3-3-3-4-4-4-5-5-------||


                                   3rd Verse
  2.
  E S S S S S S S S S S S S S S     a E S S E S S E S S S S S S
|-------------------------------||------------------------------|
|-------------------------------||o-----------------------------|
|-5-5-5-3h5-5-5-3h5-5-5-3h5-5-5-||o-3h5-x-5-5-x-5-5-x-5-5-0-5-0-|
|-------------------------------||------------------------------|


  E S S E S S E S S E S S   E S S E S S E S S E S S
|-------------------------|-------------------------|
|-------------------------|-5-x-5-5-x-5-5-x-5-5-x---|
|-3-x-3-3-x-3-3-x-3-3-x-3-|-----------------------3-|
|-------------------------|-------------------------|


  1.                            2.
  E S S E S S E S S S S S S     E S S E S S E S S S S S S
|----------------------------||----------------------------||
|---------------------------o||----------------------------||
|-5-x-5-5-x-5-5---------3---o||-5-x-5-5-x-5-5-x-5-5-0-5-0--||
|-----------------0-3-5---5--||----------------------------||


  E S S E S S E S S E S S   E S S E S S E S S E S S
|-------------------------|-------------------------|
|-------------------------|-5-x-5-5-x-5-5-x-5-5-x---|
|-3-x-3-3-x-3-3-x-3-3-x-3-|-----------------------3-|
|-------------------------|-------------------------|


  E S S E S S E S S S S S S   E S S E S S E S S E S S
|---------------------------|-------------------------||
|---------------------------|-------------------------||
|-5-x-5-5-x-5-5---------3---|-5-x-5-5-x-5-5-x-5-5-x-5-||
|-----------------0-3-5---5-|-------------------------||


   Chorus
    E S S E S S E S S S S S S   E S S E S S E S S E S S
||----------------------------|-------------------------|
||o---------------------------|-------------------------|
||o-5-x-5-5-x-5-5-x-5-5-0-5-0-|-3-x-3-3-x-3-3-x-3-3-x-3-|
||----------------------------|-------------------------|


                            1.
  E S S E S S E S S E S S   E S S E S S E S S E S S
|-------------------------|--------------------------||
|-5-x-5-5-x-5-5-x-5-5-x---|-------------------------o||
|-----------------------3-|-5-x-5-5-x-5-5-x-5-5-0-3-o||
|-------------------------|--------------------------||


                                  Guitar Solo
  2.
  E S S +E  S S S S S S S S S S    E. S E S S E. S S S E
|-------------------------------||------------7--7-------|
|-------------------------------||--------5-7------5-6-7-|
|-5-------------------------3-4-||-5--5-5----------------|
|---0-2-(2)-3-3-3-4-4-4-5-5-----||-----------------------|


  E. S E S S E. S S S E   E. S S S E +E  S S S S S S
|------------7--7-------|----------------------------|
|--------5-7------5-6-7-|-5--------5-(5)-----5-------|
|-3--3-3----------------|----0-3h5-------3h5---0-3-4-|
|-----------------------|----------------------------|


  E S S +E  S S S S S S S S S S   E. S E S S E. S S S E
|-------------------------------|------------7--7-------|
|-------------------------------|--------5-7------5-6-7-|
|-5-------------------------3-4-|-5--5-5----------------|
|---0-2-(2)-3-3-3-4-4-4-5-5-----|-----------------------|


  E. S E S S E. S S S E   E. S S S E +E  S S S S S S
|------------7--7-------|----------------------------|
|--------5-7------5-6-7-|-5--------5-(5)-----5-------|
|-3--3-3----------------|----0-3h5-------3h5---0-3-4-|
|-----------------------|----------------------------|


                                  Chorus
  E S S S S S S S S S S S S S S    a H.      +E. S
|-------------------------------||-----------------|
|-------------------------------||-----------------|
|-5-5-5-3h5-5-5-3h5-5-5-3h5-5-5-||-3h5-------(5)-0-|
|-------------------------------||-----------------|


  H..       E   H..       E   W
|-------------|-------------|------|
|-------------|-5-----------|------|
|-3-----------|-------------|-5----|
|-------------|-------------|------|


  W          W          H..       E
|----------|----------|-------------|
|----------|----------|-5-----------|
|-5--------|-3--------|-------------|
|----------|----------|-------------|


                  Chorus
  H.      +E. S    E S S E S S E S S S S S S
|---------------||---------------------------|
|---------------||---------------------------|
|-5-------(5)-3-||-5-x-5-5-x-5-5-x-5-5-0-5-0-|
|---------------||---------------------------|


  E S S E S S E S S E S S   E S S E S S E S S E S S
|-------------------------|-------------------------|
|-------------------------|-5-x-5-5-x-5-5-x-5-5-x---|
|-3-x-3-3-x-3-3-x-3-3-x-3-|-----------------------3-|
|-------------------------|-------------------------|


  E S S E S S E S S E S S     E S S E S S E S S S S S S
|-------------------------||----------------------------|
|-------------------------||o---------------------------|
|-5-x-5-5-x-5-5-x-5-5-x-5-||o-5-x-5-5-x-5-5-x-5-5-0-5-0-|
|-------------------------||----------------------------|


  E S S E S S E S S E S S   E S S E S S E S S E S S
|-------------------------|-------------------------|
|-------------------------|-5-x-5-5-x-5-5-x-5-5-x---|
|-3-x-3-3-x-3-3-x-3-3-x-3-|-----------------------3-|
|-------------------------|-------------------------|


  1.,2.                         3.
  E S S E S S E S S S S S S     E S S E S S E S S S S S S
|----------------------------||----------------------------|
|---------------------------o||-5-x-5-5-x-5-5-x-5-5--------|
|-5-x-5-5-x-5-5---------3---o||---------------------0-3-4--|
|-----------------0-3-5---5--||----------------------------|


                                    Guitar Solo
  E S S E S S +S  S S S +S  S S S    E. S S S S S E. S S S E
|---------------------------------||--------7-----7--7-------|
|---------------------------------||----------5-7------5-6-7-|
|-5-5-5-5-0-5-(5)-----------0-3-4-||-5--5-5------------------|
|-----------------0-2-3-(3)-------||-------------------------|


  E. S E S S Q  S S E   E. S S S E +E  S S S S S S
|------------7--------|----------------------------|
|--------5-7----5-6-7-|----------5-(5)-----5-------|
|-3--3-3--------------|----0-3h5-------3h5---0-3-4-|
|---------------------|-3--------------------------|


  E. S E S S +S  S S S S S S S   E. S S S S S E. S S S E
|------------------------------|--------------7--7-------|
|------------------------------|----------5-7------5-6-7-|
|-5------------------------3-4-|-5--5-5-5----------------|
|----0-2-2-3-(3)-4-4-4-5-5-----|-------------------------|


  E. S S S S S a E. S E  S S   E. S S S E E S S S S S S
|--------------7s9--9-9-----|--------------------------|
|--------7-5-7---------------|----------5-5-----5-------|
|-3--3-3-----------------3-5-|----0-3h5-----3h5---0-3-4-|
|----------------------------|-3------------------------|


                                  Outro
  E S S S S S S S S S S S S S S    a H.      E. S
|-------------------------------||----------------|
|-------------------------------||----------------|
|-5-5-5-3h5-5-5-3h5-5-5-3h5-5-5-||-3h5----------0-|
|-------------------------------||----------------|


  H.      Q    H.      Q
|------------|------------|
|------------|-5----------|
|-3----------|------------|
|------------|------------|


  TP
  W          E E H.
|----------|-----------*|
|-7--------|-7-7-7-----*|
|-5--------|-5-5-5-----*|
|----------|-----------*|





Comments


Popular Marshall Tucker Band tabs & chords
Fire On The Mountain Chords
Fire On The Mountian Chords
Foolish Dreaming Chords
Low Down Ways Chords
Windy City Blues Chords
Cant You See Intro Tabs
Take The Highway Tabs
Change Is Gonna Come Ukulele
Heard It In A Love Song Ukulele
Holding On To You Ukulele


Song lyrics



↑ Back to top | Tablatures and chords are parodies/interpretations of the original songs. You may use it for private study, scholarship, research or language learning purposes only
© 2014 AZChords.com Contact us | Privacy policy | DMCA | Add/correct tabs | Request tabs | Top 50 tabs