» » »

Stop Me Bass tabs (ver.2)

Artists:  A B C D E F G H I J K L M N O P Q R S T U V W X Y Z # 

Stop Me Bass tabs (ver.2)

Mark Ronson
Rating:
3/5 (2 votes)

Hard to play? Try these video lessons and learn fast.
                this is my first tab so it might not be exact.
Intro
bass enters 0:34
G|-----------------------------------------------------------------------------------------------------|
D|-------------------------------------------------10-10-10-10-10-10--12-12-12--13--13-13--15-15-15\8--|
A|---8-11-11-11-------8-11-11-11-11-11-11------10------------------------------------------------------|
E|-8------------8-8-8---------------------8-8-8--------------------------------------------------------|

G|------------------------------------------------------------------------------|
D|------------------------------------------------------------------------------|
A|---8-11-11-11-------8-11-11-11-11-11-11---8-8-8-8-8-8-8-8--10-10-10-10-10-10--|
10-10---------------------------------------------------------------------------|
E|-8------------8-8-8-----------------------------------------------------------|

Verse+Chorus 0:50
G|-------------------------------------------------------|
D|-------------------------------------------------------|
A|----------------5-/-10-5-10--6--6-6--6-6-6--8---8------|
E|-8--8-8--8-8--8---------------------------------6---6--|

G|-----------------------------------------------------------------------------------------------------------|
D|-----------------------------------------------------------------------------------------------------------|
A|----------------5-/-10-5-10--6--6-6--6-6-6--8--8--8--------------------------------------------------------|

×3--|

Intro ×1     1:22   Sometimes a hammer down at the end:
A|--15\-8-8-8-8-8-8-8-8-10-10-10-10-10-10-10-10-

Verse ×3    1:40

Intro ×1     2:11
A|--15\-8-8-8-8-8-8-8-8-10-10-10-10-10-10-10-10-

Verse ×10 2:27 Until End
so don't be too harsh
            
Hard to play? Try these video lessons and learn fast. | Correct




comments powered by Disqus
↑ Back to top | Tablatures and chords are parodies/interpretations of the original songs. You may use it for private study, scholarship, research or language learning purposes only