>
 >
Stop Me

Stop Me Guitar Tabs

Mark Ronson - Stop Me chords, tabs, tablatures, lyrics

Guitar lessons | Add/correct | Request | Top 50 tabs Artists:  A B C D E F G H I J K L M N O P Q R S T U V W X Y Z 0-9

Stop Me Guitar Tabs – Mark Ronson

CD, Sheet music, Poster

Do you like Stop Me? Share with your friends now
Bass TabsBass Tabs v2Bass Tabs v3ChordsChords v2TabsUkulele
----------------------------------------------------------------------------
----------------------------------------------------------------------------




Tuning: Standard


| /  slide up
| \  slide down
| h  hammer-on
| P  pull-off
| ~  vibrato
| +  harmonic
| x  Mute note


 Chords:

     C      G     Eb      F               Ab     Cm

e|---x------3------x------1---------------4------3------------------------|
B|---5------3------8------1---------------4------4------------------------|
G|---5------4------8------2---------------5------5------------------------|
D|---5------5------8------3---------------6------5-----------------------||
A|---3------5------6------3---------------6------x------------------------|
E|---x------x------x------x---------------x------x------------------------|




 Fig 1:
        Ab     Cm     Ab                                           
e|-------4------3------4--------------------------------------------------|
B|-------4------4------4--------3----3-3-3----3----3----3-3-3-----x3------|
G|-------5------5------5--------3-h5-5-5-5-P3-3----3-h5-5-5-5-P3--x3------|
D|-------6------5------6--------3----3-3-3----3----3----3-3-3-----x3------|
A|-------6------x------6--------------------------------------------------|
E|-------x------x------x--------------------------------------------------|



 Fig 2:

   Ab     Cm                   Ab
e|--4------3--------------------4-----------------------------------------|
B|--4------4--------------------4---3----3-3-3----3----3----3-3-3-----x3--|
G|--5------5--------------------5---3-h5-5-5-5-P3-3----3-h5-5-5-5-P3--x3--|
D|--6------5------------3-------6---3----3-3-3----3----3----3-3-3-----x3--|
A|--6------x---3--5--6-----6--5/6-----------------------------------------|
E|--x------x--------------------x-----------------------------------------|


===========================================================================

 

C                  G
                
Stop me, oh-oh-oh, stop me

Eb

Stop me if you think that you've

F

Heard this one before

C                  G

Stop me, oh-oh-oh, stop me

Eb                               F

Stop me if you think that you've heard this one before


C          G

Nothing's changed

              Eb                   F

I still love you, oh, I still love you

          C                       G          Eb           F

But Only slightly, only slightly less than I used to, my love


 Fig 1:
        Ab    Cm    Ab                                                  

e|-------4-----3-----4--------------------------------------------------|
B|-------4-----4-----4--------3----3-3-3----3----3----3-3-3-----x3------|
G|-------5-----5-----5--------3-h5-5-5-5-P3-3----3-h5-5-5-5-P3--x3------|
D|-------6-----5-----6--------3----3-3-3----3----3----3-3-3-----x3------|
A|-------6-----x-----6--------------------------------------------------|
E|-------x-----x-----x--------------------------------------------------|



C                    G    
         
I was delayed, I was way-laid

   Ab

An emergency stop

           F                   C

I saw the last ten seconds of life

                      G

I crashed down on the crossbar

         Ab                        

And the pain was enough to make

  F                        C         

A shy, bald, Buddhist reflect

                 G                

And plan a mass murder

Eb                    F                

Who said lied I'd to her ?

C                                G                 

Oh, who said I'd lied because I never ? never !

Eb                           F            

Who said I'd lied because I never ?


 Fig 2:

        Ab  Cm                   Ab
e|--4---3--------------------4------------------------------------------|
B|--4---4--------------------4----3----3-3-3----3----3----3-3-3-----x3--|
G|--5---5--------------------5----3-h5-5-5-5-P3-3----3-h5-5-5-5-P3--x3--|
D|--6---5------------3-------6----3----3-3-3----3----3----3-3-3-----x3--|
A|--6---x---3--5--6-----6--5/6------------------------------------------|
E|--x---x--------------------x------------------------------------------|



C                      G

I was detained, I was restrained

Eb                           

And broke my knee, And broke my spleen

          F                                  

and then he really laid into me
 
 C               G                  

Friday night in Out-patients

Eb                    F       
                               
Who said I'd lied to her ?

C                                   G              
     
Oh, who said I'd lied ? - because I never, never

Eb                    F           

Who said I'd lied to her? 
 

C                    

Oh, so I drank one

G              

It became four

Eb                                    F   

And when I fell on the floor I drank more


 Fig 2:

    Ab  Cm                   Ab
e|--4---3--------------------4-------------------------------------------|
B|--4---4--------------------4-----3----3-3-3----3----3----3-3-3-----x3--|
G|--5---5--------------------5-----3-h5-5-5-5-P3-3----3-h5-5-5-5-P3--x3--|
D|--6---5------------3-------6-----3----3-3-3----3----3----3-3-3-----x3--|
A|--6---x---3--5--6-----6--5/6-------------------------------------------|
E|--x---x--------------------x-------------------------------------------|


C                  G
                
Stop me, oh-oh-oh, stop me

Eb

Stop me if you think that you've

F

Heard this one before

C                  G

Stop me, oh-oh-oh, stop me

Eb                               F

Stop me if you think that you've heard this one before

C          G

Nothing's changed

              Eb                   F

I still love you, oh, I still love you

          C                       G          Eb           F

But Only slightly, only slightly less than I used to, my love

                          
C                     G      

Set free me why don't you

Eb                          F

get out my life why don't you 

C                      G

Cause you don't really love me, no

          Eb              F     

You just keep my hanging on


C                G             

Set me free why don't you babe

Eb                   F      

get out my life why don't you girl

C                     G          

Cause you don't even love me, no, no, no

          Eb              F         

You just keep my hanging on.





Comments


Popular Mark Ronson tabs & chords
Stop Me Bass Tabs
Stop Me 1 Bass Tabs
Stop Me 3 Bass Tabs
Valerie Bass Tabs
Bang Bang Bang 1 Chords
Somebody To Love Me Chords
Stop Me Chords
The Night Last Night Chords
The Night Last Night Ukulele
You Gave Me Nothing Ukulele


Song lyrics



↑ Back to top | Tablatures and chords are parodies/interpretations of the original songs. You may use it for private study, scholarship, research or language learning purposes only
© 2014 AZChords.com Contact us | Privacy policy | DMCA | Add/correct tabs | Request tabs | Top 50 tabs