» » »

Mark Ronson, Stop Me Bass tabs (ver.1)

Artists:  A B C D E F G H I J K L M N O P Q R S T U V W X Y Z # 

Stop Me Bass tabs (ver.1)

Mark Ronson Tabs
 Rating:
4/5 (4 votes)
Stop Me lessons Tabs too difficult? Try these video lessons and learn fast
                personally i think mark ronson played this song better than the smiths version 
any way here it is

Intro: 0:35
G------------------55----55--7---8---10-------------------------------------|
D----66-----66----5--5---------------------66-----66------------------------|
A---6--6---6--6-3------3---5---6---8------6--6---6--6--55555555-------------|
E3>4------4------------------------------4------4----------------44444444---|

Main Riff:-
G---------------------------------------------------------------------------|
D---------------------------------------------------------------------------|
A-3--33-4-5--55-h6--66-h7-8---88--------------------------------------------|
E---3-------5------6---------8----------------------------------------------|
3rd to 5th to 6th to 8th on the A string are the core notes but on the song its 
a bit fiddley.

Chorus: -

|----------------------JUST PLAY THE INTRO AGAIN----------------------------|


thats about it really just listen 2 the song
            
Submit corrections

comments powered by Disqus
↑ Back to top | Mark Ronson Bass for Stop Me. Lyrics for acoustic guitar and electric guitar. Tablatures and chords are parodies/interpretations of the original songs. You may use it for private study, scholarship, research or language learning purposes only