» » »

The Dope Show Tabs (ver.3)

Artists:  A B C D E F G H I J K L M N O P Q R S T U V W X Y Z # 

The Dope Show Tabs (ver.3)

Marilyn Manson
Rating:
0/5 (0 votes)

Hard to play? Try these video lessons and learn fast.
                Marilyn Manson
The Dope Show
NOTE: *= 8X

Verse – Bass (“The drugs they say..”)
A|---------------------5---3---3--3-2--|
E|-0---0---0---0-3^-0------------------|

Chorus 1 (Gtr. 1) (“There’s lots of pretty..”)
G|-7-9*-12*---------------|
D|-7-9*-12*-12*-10-----9--|
A|-5-7*-10*-12*-10-----9--|
E|----------10*-8-(7x)-7--|

Verse (Gtr. 1)
E|-----------12--------12------------12---12--------|
B|---12-10-------10-12-------12-10-----------12-10--|
G|-9-------9---------------9-------9----------------|

Pre-Chorus (Gtr. 1) (“They love you when..”)
A|-5/7--7-5-7--7--7-5-7--|

Pre-Chorus/Fill (Gtr. 2)
G|-9---7---5-------|
D|-9---7---5---5---|
A|-7---5---3---5---|
E|-------------3---|

Chorus 2 (Gtr. 2)
G|--------7-9---------7-9--|
D|-7^-/5-------7^-/5-------|

Chorus 3 (Gtr. 1)
G|----------7*-5-----4--|
D|-2*-5*----7*-5-----4--|
A|-2*-5*----5*-3(7x)-2--|
E|-0*-3*----------------|

Outro (Gtr. 1)
A|--------------------5-5--3--3-2--|
E|-0---0---0---0-3-0---------------|
            
Hard to play? Try these video lessons and learn fast. | Correct




comments powered by Disqus
↑ Back to top | Tablatures and chords are parodies/interpretations of the original songs. You may use it for private study, scholarship, research or language learning purposes only