>
 >
The Dope Show 2

The Dope Show 2 Bass Tabs

Marilyn Manson - The Dope Show 2 chords, tabs, tablatures, lyrics

Guitar lessons | Add/correct | Request | Top 50 tabs Artists:  A B C D E F G H I J K L M N O P Q R S T U V W X Y Z 0-9

The Dope Show 2 Bass Tabs – Marilyn Manson

CD, Sheet music, Poster

Do you like The Dope Show 2? Share with your friends now
Bass TabsBass Tabs v2ChordsTabsTabs v2Tabs v3Tabs v4Ukulele
                            THE DOPE SHOW (Bassline)
                          As recorded by Marilyn Manson
                    (From the 1998 Album MECHANICAL ANIMALS)

Words and Music by Marilyn Manson and Twiggy Ramirez
Arranged by Marilyn Manson and Twiggy Ramirez

Gtr I (E A D G) - 'Twiggy'

 Intro
  Q=92(8=s8)
               (Em)              (D) (C)     (B)
 4/4
               Gtr I
  Wx2          q  q  E E E E   E E E E E E E E
|----------||----------------|------------------||
|----------||o---------------|-----------------o||
|----------||o---------------|---5-5-3-3-3-3-2-o||
|----------||--0--0--0-0-3-0-|------------------||


   Verse
    (Em)              (D) (C)     (D) (Em)              (D) (C)     (B)
    q  q  E E E E   E E E E E E E E   q  q  E E E E   E E E E E E E E   3x
||----------------|-----------------|---------------|-------------------||
||o---------------|-----------------|---------------|------------------o||
||o---------------|---5-5-3-3-3-3-2-|---------------|---5-5-3-3-3-3-2--o||
||--0--0--0-0-3-0-|-----------------|-0--0--0-0-3-0-|-------------------||


   Pre-Chorus
    $
    E5            G5
    E E E E E E E  E    E  E  E  E  E  E  Q
||-------------------|-----------------------|
||o------------------|-----------------------|
||o-7-7-7-7-7-7-7-10-|-10-10-10-10-10-10-10--|
||-------------------|-----------------------|


  D5            C5                B5
  E E E E E E E E   E E E E E E E E
|-----------------|-------------------||
|-----------------|------------------o||
|-5-5-5-5-5-5-5-3-|-3-3-3-3-3-3-3-2--o||
|-----------------|-------------------||


   1st and 2nd Chorus
    (Em)              (D) (C)     (B)
    q  q  E E E E   E E E E E E E E
||----------------|------------------||-|
||o---------------|-----------------o||-|
||o---------------|---5-5-3-3-3-3-2-o||-|
||--0--0--0-0-3-0-|------------------||-|


   Bridge
     E5          G5              A5         D5
     a E E E E a  E  E E  E    a  E  E E  E E E E E  3x
||--------------------------|------------------------||
||o-------------------------|-----------------------o||
||o--5s7-7---7-7s10-10---10-|-10s12-12---12-5-5---5-o||
||--------------------------|------------------------||


                             To Coda                      D.S. al Coda
  E5      D5        C5      G5          (Em)              (D) (C)     (B)
  E E E E E E E E   E E E E E E E E     q  q  E E E E   E E E E E E E E  4x
|-----------------|-----------------||----------------|------------------||
|-----------------|-----------------||o---------------|-----------------o||
|-7-7---7-5-5---5-|-3-3---3---------||o---------------|---5-5-3-3-3-3-2-o||
|-----------------|---------3-3---3-||--0--0--0-0-3-0-|------------------||


 2nd Pre-Chorus
  &
  E5            G5                           D5            C5
  E E E E E E E  E    E  E  E  E  E  E  Q    E E E E E E E E
|------------------|-----------------------|-----------------|
|------------------|-----------------------|-----------------|
|-7-7-7-7-7-7-7-10-|-10-10-10-10-10-10-10--|-5-5-5-5-5-5-5-3-|
|------------------|-----------------------|-----------------|


                B5  E5            G5                (E)
  E E E E E E E E   E E E E E E E E   E E E E E E E  E
|-----------------|-----------------|--------------------||
|-----------------|-----------------|--------------------||
|-3-3-3-3-3-3-3-2-|-----------------|--------------------||
|-----------------|-0-0-0-0-0-0-0-3-|-3-3-3-3-3-3-3-(0)--||


                                       Out Chorus
  D5            C5                B5    (Em)              (D) (C)     (B)
  E E E E E E E E   E E E E E E E E     q  q  E E E E   E E E E E E E E  4x
|-----------------|-----------------||----------------|------------------||
|-----------------|-----------------||o---------------|-----------------o||
|-5-5-5-5-5-5-5-3-|-3-3-3-3-3-3-3-2-||o---------------|---5-5-3-3-3-3-2-o||
|-----------------|-----------------||--0--0--0-0-3-0-|------------------||


Duration Legend
---------------
W - whole; H - half; Q - quarter; E - 8th; S - 16th; T - 32nd; X - 64th; a - acciaccatura
+ - note tied to previous; . - note dotted; .. - note double dotted
Uncapitalized letters represent notes that are staccato (1/2 duration)
Irregular groupings are notated above the duration line
Duration letters will always appear directly above the note/fret number it represents the
duration for.  Duration letters with no fret number below them represent rests.  Multi-
bar rests are notated in the form Wxn, where n is the number of bars to rest for.  Low
melody durations appear below the staff

Tablature Legend
----------------
 h   - hammer-on
 p   - pull-off
 b   - bend
 pb  - pre-bend
 r   - bend release (if no number after the r, then release immediately)
 /\  - slide into or out of (from/to "nowhere")
 s   - legato slide
 S   - shift slide
  - natural harmonic
[n]  - artificial harmonic
n(n) - tapped harmonic
 ~   - vibrato
 tr  - trill
 T   - tap
 TP  - trem. picking
 PM  - palm muting
\n/  - tremolo bar dip; n = amount to dip
 \n  - tremolo bar down
 n/  - tremolo bar up
/n\  - tremolo bar inverted dip
 =   - hold bend; also acts as connecting device for hammers/pulls
 <>  - volume swell (louder/softer)
 x   - on rhythm slash represents muted slash
 o   - on rhythm slash represents single note slash

Misc Legend
-----------
 |  - bar
||  - double bar
||o - repeat start
o|| - repeat end
*|  - double bar (ending)
 :  - bar (freetime)
 $  - Segno
 &  - Coda
Tempo markers -  = BPM(8/16=s8/s16), where s8 = swing 8ths, s16 = swing 16ths





Comments


Popular Marilyn Manson tabs & chords
Heart-shaped Glasses Bass Tabs
I Dont Like The Drugs But The Drugs Like Me 2 Bass Tabs
Suicide Snowman Bass Tabs
The Nobodies Chords
***Ty Chicken Gang Bang Tabs
Diamonds Amp Pollen Tabs
Just A Car Crash Away 1 Tabs
Lunchbox 1 Tabs
Red Carpet Grave 1 Tabs
The Fall Of Adam Tabs


Song lyrics



↑ Back to top | Tablatures and chords are parodies/interpretations of the original songs. You may use it for private study, scholarship, research or language learning purposes only
© 2014 AZChords.com Contact us | Privacy policy | DMCA | Add/correct tabs | Request tabs | Top 50 tabs