» » »

Cruci-Fiction In Space Tabs (ver.3)

Artists:  A B C D E F G H I J K L M N O P Q R S T U V W X Y Z # 

Cruci-Fiction In Space Tabs (ver.3)

Marilyn Manson
Rating:
0/5 (0 votes)

Hard to play? Try these video lessons and learn fast.
                Marilyn Manson
Cruci-fiction in Space

Intro
G|--2-2-2-2-2-2-2-2--|
D|--4-4-4-4-4-4-4-4--|
A|--4-4-4-4-4-4-4-4--|
  pm...............

Chorus (this is the evolution...)
G|-11----9-11-9-------------|
D|-11----9-11-9-7-----9--7--|
A|-9-----7-9--7-7-----9--7--|
E|--------------5-----7--5--|

Bridge (we're dead...)
D|-11----9-11-9-7----9--|
A|-11----9-11-9-7----9--|
E|-9-----7-9--7-5----7--|

Interlude (in our space..)
D|--11-9-7-6--|
A|--11-9-7-6--|
E|--9--7-5-4--|

Outro - Do Intro

Outro (Synth.)
G|--10-9---10-9-7-9---10--9--11--------|
D|-------------------------------9-11--|
            
Hard to play? Try these video lessons and learn fast. | Correct




comments powered by Disqus
↑ Back to top | Tablatures and chords are parodies/interpretations of the original songs. You may use it for private study, scholarship, research or language learning purposes only