» » »

Cruci-Fiction In Space Tabs (ver.1)

Artists:  A B C D E F G H I J K L M N O P Q R S T U V W X Y Z # 

Cruci-Fiction In Space Tabs (ver.1)

Marilyn Manson
Rating:
0/5 (0 votes)

Tabs too difficult? Try these video lessons and learn fast.
                Dif.: 6

NOTE: I know for sure that this song is tuned down cause it's a real ***ing heavy ass song but this tab is for a standard tuned 7 string. But if you wanna learn it on a six string, tune it to Wes Borlands tuning (C#,F#,E,B,G#,C#)

Intro
A|--4-4-4-4-4-4-4-4--|
E|--4-4-4-4-4-4-4-4--|
B|--2-2-2-2-2-2-2-2--|
  pm-----------------|

Chorus (“this is evolution...)
D|-11----9-11-9--------------|
A|-11----9-11-9-7-----9--7---|
E|--9----7--9-7-7-----9--7---|
B|-------------5-----7--5---|

Bridge 1 (“We’re are dead..”)
D|-11----9-11-9-7----9--|
A|-11----9-11-9-7----9--|
E|--9----7--9-7-5----7--|

Interlude 2 (“In our space..”)
D|--17-17-14-11-(-9-11-9-)--|
A|--17-16-14-11-(-9-11-9-)--| NOTE: The notes in the brackets aren’t played on last
E|--15-14-12--9-(-7--9-7-)--| repeat

Outro - Do Intro

Outro (Gtr arr. for synth.)
G|--10-9---10-9-7---10--9--11-------|
D|------------------------------9-11-|

That's it. Love this song, it's just so heavy and I love what Manson did with this song on the Gods, Guns And Government Tour. It's was awseome.
            
Tabs too difficult? Try these video lessons and learn fast.




comments powered by Disqus
↑ Back to top | Tablatures and chords are parodies/interpretations of the original songs. You may use it for private study, scholarship, research or language learning purposes only