>
 >
Come White

Come White Guitar Tabs

Marilyn Manson - Come White chords, tabs, tablatures, lyrics

Guitar lessons | Add/correct | Request | Top 50 tabs Artists:  A B C D E F G H I J K L M N O P Q R S T U V W X Y Z 0-9

Come White Guitar Tabs – Marilyn Manson

CD, Sheet music, Poster

Do you like Come White? Share with your friends now
Tabs
Notez: This is the acoustic version.The main riff may not be correct,I know that three chords are picked but I dont know which one's.So I went with 2 strings,it still sound aight.
There is also bass played here at the intro.I will not tab that (maybe later I will).And there are 2 guitars playing.I will tab the main one.

Even More Notes: p = Pulloff
                 
                 h = Hammer On
 
                 b = Bend (string up)

Riff 1 (main)

e--------------------------------------------------------------------------|
B--0-0-0-0-11--0-0-0-0-11--0-0-0-0-11/3333-11-00---------------------------|
G-2-2-2-2-----2-2-2-2-----2-2-2-2------------------------------------------|
D--------------------------------------------------------------------------|
A--------------------------------------------------------------------------|
E--------------------------------------------------------------------------|

Riff 2 (chorus)

Im not showing you how many times to strum,but I think its like 8 for every
chord then slide up/down to the next.Listen to the song to get it correctly.

"A pill to make you numb..." 
e-----------------------|
B-----------------------|
G-----------------------|
D-9-11-7-5--------------|
A-9-11-7-5--------------|
E-7-9--5-3--------------|




This riff is played when there is no singing and sometime by the end of the song.Here,there are 2 guitars playing at the same time so you can played either Riff 3 or Riff 3a.Riff 3a sounds better,or Riff 3,whatever.Also at a point in the song Riff 3 is played by itself.In fact it begins at 2:07 (counting down to the ending,or 3:30 counting up to total) then Riff 3a come's in and they both play at the same time.Again you can choose any one to play.

Riff 3a

e------------------------------------------------------------------------|
B------------------------------------------------------------------------|
G------------------------------------------------------------------------|
D-7-7-7-7-10-12-X-6-6-6-6-10-12-X-7-7-7-7-12-10-X-3-3-3-3-3-3-3-3--------| A-7-7-7-7-10-12-X-6-6-6-6-10-12-X-7-7-7-7-12-10-X-3-3-3-3-3-3-3-3--------|
E-5-5-5-5-8 -10-X-4-4-4-4-8 -10-X-5-5-5-5-10-8 -X-1-1-1-1-1-1-1-1--------|

Riff 3a
e-----------------------------------------------------------------------------------|
B-99999999-8-10-8-7-7-9-7-5-7-3h5p3--10-10-10-10-8-10-8-7-7-9-7-5-7-2h4p2h4p2h4-----|
G-----------------------------------------------------------------------------------|
D-----------------------------------------------------------------------------------|
A-----------------------------------------------------------------------------------|
E-----------------------------------------------------------------------------------|

Riff 4a

This is the little thing played during the ending and stuff.

e-----------------------------|
B-10--12--11--13--------------|
G-----------------------------|

Riff 4b

Another little thing played around the ending.Listen to the song to find where these are played (at the end,somewhere).Here you go 8888 then 10 the *b* (bend) up to like 11 or 12 as long as its a bend its aight.What im trying to say is bend up then come back down.

e-----------------------------------------|
B-888810b12-888810b12-888810b12-888811b13-|
G-----------------------------------------|

Riff 5

Another little thing played at the end.

Here you hit 8 then *h* (hammer on) 10 then *p* (pulloff) back to 8 then 6 then 4.
e---------------|
B-8h10p8-6-4----|
G---------------|



Well that's it.Coma White Acoustic.If you can do better,keep it to yourself!Enjoy!

Gh0st 666.




The End.





Comments


Popular Marilyn Manson tabs & chords
Filth Bass Tabs
Heart-shaped Glasses Bass Tabs
The Fight Song 2 Bass Tabs
Astonishing Panorama Of The Endtimes Tabs
Disassociative 1 Tabs
The Fight Song 4 Tabs
The Nobodies 5 Tabs
User Friendly Tabs
Dogma Ukulele
The Fight Song Ukulele


Song lyrics



↑ Back to top | Tablatures and chords are parodies/interpretations of the original songs. You may use it for private study, scholarship, research or language learning purposes only
© 2014 AZChords.com Contact us | Privacy policy | DMCA | Add/correct tabs | Request tabs | Top 50 tabs