» » »

Marilyn Manson, 'Coma White Tabs (ver.1)

Artists:  A B C D E F G H I J K L M N O P Q R S T U V W X Y Z # 

'Coma White Tabs (ver.1)

Marilyn Manson Tabs
 Rating:
4/5 (4 votes)
'Coma White lessons Tabs too difficult? Try these video lessons and learn fast
1
                Artist – Marilyn Manson
Song – Coma White
Album – Mechanical Animals
Tuning – Drop D

The stops (x’s) do the first one an up stroke then the 
next x a down stroke really fast

Intro/Verse X6
E|-------------------------
B|----0---0---0---0--1--1--
G|--2---2---2---2----------
D|-------------------------
A|-------------------------
D|-------------------------

Chorus X2
E|------------------------------------------------------------------------------
B|------------------------------------------------------------------------------
G|------------------------------------------------------------------------------
D|-7-7-7-7-7-7-7-7-10-10-10-10-10-10-10-10-5-5-5-5-5-5-5-5-X-X-3-3-3-3-3-3-3-3--
A|-7-7-7-7-7-7-7-7-10-10-10-10-10-10-10-10-5-5-5-5-5-5-5-5-X-X-3-3-3-3-3-3-3-3--
D|-7-7-7-7-7-7-7-7-10-10-10-10-10-10-10-10-5-5-5-5-5-5-5-5-X-X-3-3-3-3-3-3-3-3--

Interlude X1
E|-------------------------------------------------------------------
B|-------------------------------------------------------------------
G|-------------------------------------------------------------------
D|-7-7-7-7-10-12-X-X-6-6-6-6-10-12-X-X-7-7-7-7-12-10-3-3-3-3-3-3-3-3-
A|-7-7-7-7-10-12-X-X-6-6-6-6-10-12-X-X-7-7-7-7-12-10-3-3-3-3-3-3-3-3-
D|-7-7-7-7-10-12-X-X-6-6-6-6-10-12-X-X-7-7-7-7-12-10-3-3-3-3-3-3-3-3-

Verse X4
E|-------------------------
B|----0---0---0---0--1--1--
G|--2---2---2---2----------
D|-------------------------
A|-------------------------
D|-------------------------

Chorus X4
E|------------------------------------------------------------------------------
B|------------------------------------------------------------------------------
G|------------------------------------------------------------------------------
D|-7-7-7-7-7-7-7-7-10-10-10-10-10-10-10-10-5-5-5-5-5-5-5-5-X-X-3-3-3-3-3-3-3-3--
A|-7-7-7-7-7-7-7-7-10-10-10-10-10-10-10-10-5-5-5-5-5-5-5-5-X-X-3-3-3-3-3-3-3-3—-
D|-7-7-7-7-7-7-7-7-10-10-10-10-10-10-10-10-5-5-5-5-5-5-5-5-X-X-3-3-3-3-3-3-3-3--
                                                       
Interlude X3
E|-------------------------------------------------------------------
B|-------------------------------------------------------------------
G|-------------------------------------------------------------------
D|-7-7-7-7-10-12-X-X-6-6-6-6-10-12-X-X-7-7-7-7-12-10-3-3-3-3-3-3-3-3-
A|-7-7-7-7-10-12-X-X-6-6-6-6-10-12-X-X-7-7-7-7-12-10-3-3-3-3-3-3-3-3-
D|-7-7-7-7-10-12-X-X-6-6-6-6-10-12-X-X-7-7-7-7-12-10-3-3-3-3-3-3-3-3-

Chorus X7
E|------------------------------------------------------------------------------
B|------------------------------------------------------------------------------
G|------------------------------------------------------------------------------
D|-7-7-7-7-7-7-7-7-10-10-10-10-10-10-10-10-5-5-5-5-5-5-5-5-X-X-3-3-3-3-3-3-3-3--
A|-7-7-7-7-7-7-7-7-10-10-10-10-10-10-10-10-5-5-5-5-5-5-5-5-X-X-3-3-3-3-3-3-3-3--
D|-7-7-7-7-7-7-7-7-10-10-10-10-10-10-10-10-5-5-5-5-5-5-5-5-X-X-3-3-3-3-3-3-3-3--
            
Submit corrections

comments powered by Disqus
↑ Back to top | Marilyn Manson Tabs for 'Coma White. Lyrics for acoustic guitar and electric guitar. 1 Tablatures and chords are parodies/interpretations of the original songs. You may use it for private study, scholarship, research or language learning purposes only