» » »

Coma White -Easy- Tabs (ver.1)

Artists:  A B C D E F G H I J K L M N O P Q R S T U V W X Y Z # 

Coma White -Easy- Tabs (ver.1)

Marilyn Manson
Rating:
0/5 (0 votes)

Tabs too difficult? Try these video lessons and learn fast.
                Performed By: Marilyn Manson
Guitars: Twiggy Rameirez and John5

This song is awesome its a bit mellower then most of Mansons stuff but it still kicks some a**.

Ok before you do this there are two ways to play this there is Intro 1 which i have here but there is another 1 two but i cant figure it out its in some odd tuneing or somethin
INTRO / VERSE 1

[----0---0---0---0-1-1-]     
[----------------------]
[--2---2---2---2-------]
[----------------------]
[----------------------]
[----------------------] x3 

[--------------------]
[--5/7-7-7-7-5-5-4-4-]
[--------------------]
[--------------------]
[--------------------]
[--------------------] x1 Then repeat again a bunch o times

Chorus

[--------------------------------------------------------------------------]
[--------------------------------------------------------------------------]
[--------------------------------------------------------------------------]
[--7-7-7-7-7-7-7-7-10-10-10-10-10-10-10-10-5-5-5-5-5-5-5-5-3-3-3-3-3-3-3-3-]
[--7-7-7-7-7-7-7-7-10-10-10-10-10-10-10-10-5-5-5-5-5-5-5-5-3-3-3-3-3-3-3-3-]
[--5-5-5-5-5-5-5-5-8--8--8---8--8--8--8--8-3-3-3-3-3-3-3-3-1-1-1-1-1-1-1-1-]

This is the little solo part that comes right after manson says "...Wont save her from herself"

[---------------------------------------------------------------------]
[---------------------------------------------------------------------]
[---------------------------------------------------------------------]
[-7-7-7-7-10-12-x-6-6-6-6-10-12-x-7-7-7-7-12-10-x-3-3-3-3-3-3-3-3-3-3-]
[-7-7-7-7-10-12-x-6-6-6-6-10-12-x-7-7-7-7-12-10-x-3-3-3-3-3-3-3-3-3-3-]
[-5-5-5-5-8--10-x-4-4-4-4-8--10-x-5-5-5-5-10-8--x-1-1-1-1-1-1-1-1-1-1-]


Im gonna get the last little bit of the song soon and im also gonna get the order of the parts also
            
Tabs too difficult? Try these video lessons and learn fast.


comments powered by Disqus
↑ Back to top | Tablatures and chords are parodies/interpretations of the original songs. You may use it for private study, scholarship, research or language learning purposes only