» » »

Marilyn Manson, 'Coma White Tabs (ver.4)

Artists:  A B C D E F G H I J K L M N O P Q R S T U V W X Y Z # 

'Coma White Tabs (ver.4)

Marilyn Manson Tabs
 Rating:
4/5 (4 votes)
'Coma White lessons Tabs too difficult? Try these video lessons and learn fast
                (Full)
Marilyn Manson
Coma White
Dropped D tuning (D-A-D-G-B-E)

Intro/Verse: Clean with Delay
E-----------------------------------------------------------------|
B----0-0---0-0---0-0---0---1---1-----0-0---0-0---0-0---0---1---1--|
G--2-----2-----2-----2---2---2---2-2-----2-----2-----2---2---2----|
D-----------------------------------------------------------------|
A-----------------------------------------------------------------|
D-----------------------------------------------------------------|

E-------------------------------------------------------------------|
B----0-0---0-0---0-0---0---1---1-----3---3---3---3---1---1---0---0--|
G--2-----2-----2-----2---2---2---0-2---2---2---2---2---2---2---2----|
D-------------------------------------------------------------------|
A-------------------------------------------------------------------|
D-------------------------------------------------------------------|


Chorus: Distortion
 Part One
-7-7-7-7-7-7-7-7-10-10-10-10-10-10-10-10-5-5-5-5-5-5-5-5-5\3-3-3-3-3-3-3-3-| 
-7-7-7-7-7-7-7-7-10-10-10-10-10-10-10-10-5-5-5-5-5-5-5-5-5\3-3-3-3-3-3-3-3-| 
-7-7-7-7-7-7-7-7-10-10-10-10-10-10-10-10-5-5-5 5-5-5-5-5-5\3-3-3-3-3-3-3-3-|
Part two
-7-7-7-7-10-12-X-6-6-6-6-10-12-X-7-7-7-7-12-10-X-3-3-3-3-3-3-3-3--| 
-7-7-7-7-10-12-X-6-6-6-6-10-12-X-7-7-7-7-12-10-X-3-3-3-3-3-3-3-3--| 
-7-7-7-7-10-12-X-6-6-6-6-10-12-X-7-7-7-7-12-10-X-3-3-3-3-3-3-3-3--|

Chorus/Bridge: keyboard part transcribed During Part 2 
E------12-10-12--|
B--12------------|
G----------------|
D----------------|
A----------------|
D----------------|

Outro: 
E-------------------|
B-------------------|
G--4-h5-P4--2--0----|
D-------------------|
A-------------------|
D-------------------|

Order:
Intro 2X
Verse 4X
Chorus (part 1) 2X
Chorus (part 2) 1X
Verse 4 X
Chorus (part 1) 4X
Chorus (part 2) 3X
Outro 5X
Chorus (part 1) 2X
Chorus (part 2) 6X
            
Submit corrections

comments powered by Disqus
↑ Back to top | Marilyn Manson Tabs for Coma White. Lyrics for acoustic guitar and electric guitar. Tablatures and chords are parodies/interpretations of the original songs. You may use it for private study, scholarship, research or language learning purposes only