» » »

Marilyn Manson, Coma Black Tabs (ver.3)

Artists:  A B C D E F G H I J K L M N O P Q R S T U V W X Y Z # 

Coma Black Tabs (ver.3)

Marilyn Manson Tabs
 Rating:
4/5 (4 votes)
Coma Black lessons Tabs too difficult? Try these video lessons and learn fast
                I don't know why anyone yet has tabbed out this song. It's great and musically it's one of the best on the whole album. 
I will probably have more tabs coming soon. If someone has tabbed out the solo part during the last chorus please mail me 
and tell me

Intro/Verse 1
|-3-0---3-0---3-0----|-3-0---3-0---5-0-| This part is actually played by piano, this is how it
|-----0-----0--------|-----0-----0-----| looks like tabbed to guitar. Play just low E if you want
|-----------------x3-|-----------------| to play the bass parts too. Listen to when the bass 
|--------------------|-----------------| changes into G, D and C 
|--------------------|-----------------| 
|--------------------|-----------------| 

Bridge 
|-----------0-------|---------0---------|-----------3-------|---------0-------| 
|-------------0-----|-------1---1-------|-------------3-----|-------1---1-----| 
|-------0-------0---|-----2-------2--x5-|-------0-------0---|-----2-------2---| 
|-----2-----------2-|---0-----------0---|-----0-----------0-|---0-----------0-| 
|---2---------------|-3-----------------|---2---------------|-3---------------| 
|-0-----------------|-------------------|-3-----------------|-----------------| 
I'm mot sure about this part. It's not exactly right, but almost. 
Play regular chords if you don't want to play like this. 

    Em    C    G or
|----0----0----3----3----|
|----0----1----3----0----|
|----0----2----0----0----|
|----2----0----0----0----|
|----2----3----2----2----|
|----0---------3----3----|

Chorus
|-----------------|-----------------|-----------------|---------------------------------|
|-----------------|-----------------|-----------------|---------------------------------|
|-----------------|-----------------|-7-7-7-7-7-7-7-7-|-5-5-5-5-5-5-5-5-5-5-5-5-5-5-5-5-|
|-2-2-2-2-2-2-2-2-|-5-5-5-5-5-5-5-5-|-7-7-7-7-7-7-7-7-|-5-5-5-5-5-5-5-5-5-5-5-5-5-5-5-5-|
|-2-2-2-2-2-2-2-2-|-5-5-5-5-5-5-5-5-|-5-5-5-5-5-5-5-5-|-3-3-3-3-3-3-3-3-3-3-3-3-3-3-3-3-|
|-0-0-0-0-0-0-0-0-|-3-3-3-3-3-3-3-3-|-----------------|---------------------------------|

Verse 2
|-----------------|-----------------|-----------------|---------------------------------| 
|-----------------|-----------------|-----------------|---------------------------------|
|-----------------|-----------------|-7-7-7-7-7-7-7-7-|-5-5-5-5-5-5-5-5-5-5-5-5-5-5-5-5-|
|-2-2-2-2-2-2-2-2-|-5-5-5-5-5-5-5-5-|-7-7-7-7-7-7-7-7-|-5-5-5-5-5-5-5-5-5-5-5-5-5-5-5-5-|
|-2-2-2-2-2-2-2-2-|-5-5-5-5-5-5-5-5-|-5-5-5-5-5-5-5-5-|-3-3-3-3-3-3-3-3-3-3-3-3-3-3-3-3-|
|-0-0-0-0-0-0-0-0-|-3-3-3-3-3-3-3-3-|-----------------|---------------------------------|
<----------------------------------------PM--------------------------------------------->

Solo during Chorus 3
|-------8---| This is fairly a guess. Anyway, if it's right, repeat this several times
|-5/7^8---5-| during Chorus 3. It's very hard to hear exactly what John5 is playing 'cause
|-----------| it's played very low. 
|-----------|
|-----------|
|-----------|

Verse 3
|--------------|------|----------------|-------------|
|-7-7-7-7-7-8~-|-7/8~-|-7-7-7-7-7-7-5~-|-4^5-4^5-4^5-|
|--------------|------|----------------|-------------|
|--------------|------|----------------|-------------|
|--------------|------|----------------|-------------|
|--------------|------|----------------|-------------|
-<--------------------REPEAT x3----------------------> 

then
|----------------|-----| Repeat this last note several times.
|-7-7-7-7-7-7-5~-|-4^5-| 
|----------------|-----| 
|----------------|-----| 
|----------------|-----| 
|----------------|-----| 
<-----REPEAT----->

Intro/Verse 1 x4
Bridge x1
Chorus x2
Verse 2 x2
Chorus x2
Bridge x1
Chorus x4
Verse x3

Lyrics
My mouth was a crib ans it was growing lies
I didn't know what love was on that day
My heart's a tiny blood - clot
I picked at it
It never heals it never goes away

I burned all the good things in the Eden Eye
We were too dumb to run too dead to die
I burned all the good things in the Eden Eye
We were too dumb to run too dead to die

This was never my world
You took the angel away
I'd kill myself to make everybody pay

Ï would have told her then
She was the only thing 
I could love in this dying world
But the simple world of "love" itself
Already died and went away

This was never my world
You took the angel away
I'd kill myself to make everybody pay
This was never my world
You took the angel away
I'd kill myself to make everybody pay

I burned all the good things in the Eden Eye
We were too dumb to run too dead to die
I burned all the good things in the Eden Eye
We were too dumb to run too dead to die

This was never my world
You took the angel away
I'd kill myself to make everybody pay

Her heart's a bloodstained egg
We didn't handle with care
It's broken and bleeding
And we can never repair

"I may be the craziest person you ever met. Anyway, don't listen at me 'cause you never know what I'm saying"
            
Submit corrections

comments powered by Disqus
↑ Back to top | Marilyn Manson Tabs for Coma Black. Lyrics for acoustic guitar and electric guitar. Tablatures and chords are parodies/interpretations of the original songs. You may use it for private study, scholarship, research or language learning purposes only