» » »

Marilyn Manson, Coma Black Tabs (ver.2)

Artists:  A B C D E F G H I J K L M N O P Q R S T U V W X Y Z # 

Coma Black Tabs (ver.2)

Marilyn Manson Tabs
 Rating:
4/5 (4 votes)
Coma Black lessons Tabs too difficult? Try these video lessons and learn fast
1
                Dif.: 7

* = strum 8x

Intro/Verse (Gtr. 1) (clean tone)
E|--3-------3------3----|---|---|--3--------3-------5----|
B|----5-------5------5--|-%-|-%-|----5--------5-------5--|
G|------4-------4-------|---|---|-------4-------4--------|

Intro (Gtr. 2) (let all notes ring out)
D|--5--------------------9---------5---|
A|------------7------------------------|

Intro 2/Verse 2 (Gtr. 2)
G|--9*/12*-7*--5*----|
D|--9*/12*-7*--5*----|
A|--7*/10*-5*--3*----|
E|--0*--0*-0*--0*----|

Pre-Chorus (Gtr. 1) (“Burn all the good...”)
B|-------0---------1-0-------------------------|
G|---------1----------------2-0-------0----0---|
D|----2---------2-------0----------------------|
A|--0---------0------------------0h3----2------|

Fill (Gtr. 1) (“We were too dumb...”)
G|-----0------2-0-----0--|
D|---2-------------------|
A|-0------0--------0-----|

Chorus (Gtr. 2) (w/ dist.)
G|---------7*--5*-|
D|-2*--5*--7*--5*-|
A|-2*--5*--5*--3*-|
E|-0*--3*---------|

Fill 2/Verse 2 (Gtr. 3) (w/ phaser)
B|--0----0----0----0----|
G|----3----3----3----3--|

Fill 2/Verse 2 (Gtr. 2)
A|--7-7-7-7-7-7-7-7--|
E|--0-0-0-0-0-0-0-0--|

Chorus (Gtr. 3)
e|-0----7--6^--7^---|
            ^----^ both 1/2 steps

Outro (Gtr. 3 w/ dist. + delay)
e|-0-2-2-2-2-2-2-2-3---2~~~-|-%-|-%-|-0--2-2-2-2-2-2-2--0----|

End (Gtr. 3 w/ dist. &  delay(2nd “And we can never...”)
e|-0--2-2-2-2-2-2-2--0-------(0)--(0)--(0)---|
                              ^---------^ caused by delay

Song Structure: -
I loved when lady’s head in her lap/Distorted Drums
Intro (Gtr. 1)/Intro (Gtr. 2)
Intro (Gtr. 1)/Intro 2 (Gtr. 2)
Verse (Gtr. 1)/Intro 2 (Gtr. 2) (“My mouth was a....”)
Pre-Chorus (Gtr. 1)
Fill 1 (Gtr. 1)
Chorus (Gtr. 2)
Fill 2 (Gtr. 3)/Fill 2 (Gtr. 2)
Verse (Gtr. 3)/Verse (Gtr. 3) (“I would of told her...”)
Chorus (Gtr. 2)/Chorus (Gtr. 3)
Pre-Chorus (Gtr. 1)
Fill 1 (Gtr. 1)
Chorus (Gtr. 2)/Chorus (Gtr. 3)
Outro (Gtr. 3) (w/o lyrics)
Outro (Gtr. 3) (“Her hearts a blood stained..”)
End (Gtr. 3) (“And we can never repair...”)
            
Submit corrections

comments powered by Disqus
↑ Back to top | Marilyn Manson Tabs for Coma Black. Lyrics for acoustic guitar and electric guitar. 1 Tablatures and chords are parodies/interpretations of the original songs. You may use it for private study, scholarship, research or language learning purposes only