>
 >
Cake And Sodomy 2

Cake And Sodomy 2 Guitar Tabs

Marilyn Manson - Cake And Sodomy 2 chords, tabs, tablatures, lyrics

Guitar lessons | Add/correct | Request | Top 50 tabs Artists:  A B C D E F G H I J K L M N O P Q R S T U V W X Y Z 0-9

Cake And Sodomy 2 Guitar Tabs – Marilyn Manson

CD, Sheet music, Poster

Do you like Cake And Sodomy 2? Share with your friends now
Bass TabsBass Tabs v2TabsTabs v2Tabs v3Tabs v4Tabs v5Tabs v6
Dif.: 7

Intro
D|--9-9\\\----|-%-|-%-|------------------|
A|--9-9\\\----|-%-|-%-|------------------|
E|--7-7\\\\---|-%-|-%-|--3/////////-7\---|

Verse 1 ("Virgins sold in quantity…..")
G|-----------19---19---19-19-19--|-%-|
D|--9-9\-------------------------|-%-|
A|--9-9\-------------------------|-%-|
E|--7-7\-------------------------|-%-|

Verse 1 (cont.)
D|--9-9\--------9-9-9-9-9-9-7-7-7-7-4-4-4-4-4--7-5//--|-%-|
A|--9-9\--------9-9-9-9-9-9-7-7-7-7-4-4-4-4-4--7-5//--|-%-|
E|--7-7\--3--/7-7-7-7-7-7-7-5-5-5-5-2-2-2-2-2--5-3//--|-%-|

Verse 1 (cont.)
G|-------------------------------------------------7---|
D|--9-9\7/9-9-9-9-9-9-9-9-9--7-7-7-7--7/5\7----4---7---|
A|--9-9\5/9-9-9-9-9-9-9-9-9--7-7-7-7--7/5\7----4---5---|
E|--7-7\3/7-7-7-7-7-7-7-7-7--5-5-5-5--5/3\5----2-------|

Verse 1 (cont.)
B|-----------12-12-12-12-12-12\10-10-10\5/7-7-7-7--------------|
G|-----------11-11-11-11-11-11\-9--9--9\4/6-6-6-6-7------------|
D|--9-9-X-X--9--9---9--9--9-9-\-7--7--7\2/4-4-4-4-7--7\\\\\\---|
A|--9-9-X-X---------------------------------------5--7\\\\\\\--|
E|--7-7-X-X------------------------------------------5\\\\\\\--|

Chorus ("White trash get down…..")
E|------------------14^------------------------------|
B|------------------14^------------------------------|
G|-----------------------------------------------7---|
D|--9-9-XXXX--7-7-------4-4-4-4-2-4-4-4-7-7-7-7--7---|
A|--9-9-XXXX--7-7-------4-4-4-4-2-4-4-4-7-7-7-7--5---|
E|--7-7-XXXX--5-5-------2-2-2-2-0-2-2-2-5-5-5-5------|

Chorus (cont.)
B|-----------------12\10/12-------------------------------------|
G|-------\\\\------10\9/-10-------------------7-7-7-7-----------|
D|--9-9--\\\\-7-7--9-\7/-9---4-4-4-4-2-4-4-4--7-7-7-7-9\7-7/9---|
A|--9-9--\\\\-7-7------------4-4-4-4-2-4-4-4--5-5-5-5-9\7-7/9---|
E|--7-7-------5-5------------2-2-2-2-0-2-2-2----------7\5-5/7---|

Fill 1
D|--9----------\\\---|
A|--9----------\\\---|
E|--7-----------\\\--|

Verse 2 ("VCR’s and Vaseline….")
E|----------------19--------17--------------|-%-|
B|---------17-19-----15-17------------------|-%-|
G|-----------------------------11-14-X-14\--|-%-|
D|--9-9\------------------------------------|-%-|
A|--9-9\------------------------------------|-%-|
E|--7-7\------------------------------------|-%-|

Verse 2 (cont.)
E|--------15-19-15^--------------19------------24------|-%-|-%-|-%-|
B|--------17-17-17^-----------------19-------------24--|-%-|-%-|-%-|
G|-----------------------------------------------------|-%-|-%-|-%-|
D|--9-9----------------9-9-9-9--------------4----------|-%-|-%-|-%-|
A|--9-9----------------9-9-9-9--------------4----------|-%-|-%-|-%-|
E|--7-7----------------7-7-7-7--------------2----------|-%-|-%-|-%-|
                      Pm------|  nh---|       nh------|

Verse 2 (cont.)
E|----------14---14^------------------------------------------------|
B|----------15---15^---10--10--10-10\--7-7-7-7----------------------|
G|-------------12-------9---9---9--9\--6-6-6-6-7--------------------|
D|--9-9\\---------------7---7---7--7\--4-4-4-4-7-7------------------|
A|--9-9\\--------------------------------------5-7------------------|
E|--7-7\\----------------------------------------5\\\\\\-----///----|
                  ^ ˝ step

Solo (Gtr. 2)
D|-4-4-4-4-4/7-7-7-7-7-7\4--|-%-|-%-|-%-|
                                  ^----^  use wah

Solo Part 2 (Gtr.2 )
E|------8-------------12-------|-%-|
B|----7---7--------10----10----|-%-|
G|-6--------6----9----------9--|-%-|

Under Solo (Gtr. 1)
D|-4-4-4-4-4/7-7-7-7\5-7\5---4-4-4-4-4/7-7-7-7----9-9--
A|-4-4-4-4-4/7-7-7-7\5-7\5---4-4-4-4-4/7-7-7-7----9-9--
E|-2-2-2-2-2/5-5-5-5\3-5\3---2-2-2-2-2/5-5-5-5--5/7-7--

Under Solo (cont.)
B|-7-7-7-7-7/10-10-10-10-10-10-\7-7-7\---7/10-10-10-10-10--|
G|-6-6-6-6-6/-9--9--9--9--9--9-\6-6-6\---6/-9--9--9--9--9--|
D|-4-4-4-4-4/-7--7--7--7--7--7-\4-4-4\---4/-7--7--7--7--7--|

Under Solo 2
E|-------8-8---------12-12---------------------------|
B|-7-7-7-7-7---10-10-10-10---7-7-7-7---10-10-10-10---|
G|-6-6-6-6-6---9---9--9--9---6-6-6-6----9--9--9--9---|
D|-4-4-4-4-4---7---7--7--7---4-4-4-4----7--7--7--7---|

Outro 
E|------------------14^------------------------------|
B|------------------14^------------------------------|
G|-----------------------------------------------7---|
D|--9-9-XXXX--7-7-------4-4-4-4-2-4-4-4-7-7-7-7--7---|
A|--9-9-XXXX--7-7-------4-4-4-4-2-4-4-4-7-7-7-7--5---|
E|--7-7-XXXX--5-5-------2-2-2-2-0-2-2-2-5-5-5-5------|

End
D|--9--9-|
A|--9--9-|
E|--7--7-|

Song Structure: -
Drums w/ sex sample
Bass w/ sex sample
Intro (w/ random feedback fading in and out)
Verse 1
Chorus
Fill 1
Bass N Drums
Verse 2
Chorus
Feedback (Gtr. 1)/Fill 1 (Gtr. 2)
Solo (Gtr. 2)/Under Solo (Gtr. 1)
Solo Part 2 (Gtr. 2)/Under Solo (Gtr. 1)
Chorus
Outro
End





Comments


Popular Marilyn Manson tabs & chords
Irresponsible Hate Anthem 4 Bass Tabs
God Eat God 1 Tabs
I Want To Disappear Tabs
If I Was Your Vampire 2 Tabs
Long Hard Road Out Of Hell 1 Tabs
Lunchbox Tabs
Sweet Dreams 2 Tabs
The Reflecting God 1 Tabs
Lamb Of God Ukulele
The Dope Show Ukulele


Song lyrics



↑ Back to top | Tablatures and chords are parodies/interpretations of the original songs. You may use it for private study, scholarship, research or language learning purposes only
© 2014 AZChords.com Contact us | Privacy policy | DMCA | Add/correct tabs | Request tabs | Top 50 tabs