>
 >
Cake And Sodomy 1

Cake And Sodomy 1 Guitar Tabs

Marilyn Manson - Cake And Sodomy 1 chords, tabs, tablatures, lyrics

Guitar lessons | Add/correct | Request | Top 50 tabs Artists:  A B C D E F G H I J K L M N O P Q R S T U V W X Y Z 0-9

Cake And Sodomy 1 Guitar Tabs – Marilyn Manson

CD, Sheet music, Poster

Do you like Cake And Sodomy 1? Share with your friends now
Bass TabsBass Tabs v2TabsTabs v2Tabs v3Tabs v4Tabs v5Tabs v6
/ = Slide up to note
 \ = Slide down from note
<> = Harmonic

There were so many wrong tabs of Cake and Sodomy and it was really ***ting 
me, so i tabbed the correct version. It's based on a tab by Joe Muggah, but
me and my mate Adz  re-did most of it to sound better. And i dont want any 
dickheads giving me ***house corrections which dont accomplish anything 
because they just badmouth the tab.

Intro
e -------------------------------------------------------------------------
B -------------------------------------------------------------------------
G -------------------------------------------------------------------------
D --9-------9---9-\--------------------------------------------------------
A --9-------9---9-\--------------------------------------------------------
E --7-------7---7-\--------------------------------------------------------

Riff 1
e -------------------------------------------------------------------------
B -------------------------------------------------------------------------
G ----------<7>----<7>-----<7>--<7>--<7>-----------------------------------
D -9-9-9\------------------------------------------------------------------
A -9-9-9\------------------------------------------------------------------
E -7-7-7\------------------------------------------------------------------

Riff 2
e -------------------------------------------------------------------------
B -------------------------------------------------------------------------
G -------------------------------------------------------------------------
D -9-9-9\--/9------7--------------4----------------------------------------
A -9-9-9\--/9--x6--7--x4----------4-x4-------------------------------------
E -7-7-7\--/7------5------5h7-5---2-----2h3-2------------------------------

Riff 3
e -------------------------------------------------------------------------
B -------------------------------------------------------------------------
G -----------------------------------7-------------------------------------
D -9-9-9\--/9------7--7--5--7----4---7-------------------------------------
A -9-9-9\--/9--x6--7--7--5--7----4---5-------------------------------------
E -7-7-7\--/7------5--5--3--5----2-----------------------------------------

e -------------------------------------------------------------------------
B ---------------12------10-------7----------------------------------------
G ---------------11--x7---9--x6---6---7------------------------------------
D -9--9--x-x-x----9-------7-------4---7--7---------------------------------
A -9--9--x-x-x------------------------5--7---------------------------------
E -7--7--x-x-x---------------------------5---------------------------------

Chorus
e -------------------------------------------------------------------------
B ------------------------<7>----------------------------------------------
G ------------------------<7>---------------------------------------7------
D -9--9--x-x--x-x--7-7----<7>--4----4-4---4----4-4---4-4-4-4---7-7--7------
A -9--9--x-x--x-x--7-7---------4----4-4---4----4-4---4-4-4-4---7-7--5------
E -7--7--x-x--x-x--5-5---------0h2--2-2---0h2--2-2---2-2-2-2---5-5---------
                                  

e -------------------------------------------------------------------------
B ---------------------------12-\10-10-------------------------------------
G ---------------------------11-\-9--9-------------------------------------
D ---9-9----------------7-7---9-\-7--7--4----4-4---4----4-4---4-4-4-4------
A ---9-9----------------7-7-------------4----4-4---4----4-4---4-4-4-4------
E -0-7-7--/pick-scrape/-5-5-------------0h2--2-2---0h2--2-2---2-2-2-2------
                                           

e -------------------------------------------------------------------------
B -------------------------------------------------------------------------
G ---7--7------------------------------------------------------------------
D ---7--7--7---------------------------------------------------------------
A ---5--5--7---------------------------------------------------------------
E ---------5---------------------------------------------------------------

Riff 4
e -------------------------------------------------------------------------
B -------------------------------------------------------------------------
G -------------------------------------------------------------------------
D -----9----------------9-\------------------------------------------------
A -----9--let-it-ring---9-\-slide down slowly------------------------------
E -0---7----------------7-\------------------------------------------------

Riff 5 (harmonics are done on the far right-hand side of the fret)
e --------------<5>-------<7>----------------------------------------------
B ------------<5>-------<7>------------------------------------------------
G ----------<5>-------<7>--------12-14-x-14\-------------------------------
D -9-9-9\------------------------------------------------------------------
A -9-9-9\------------------------------------------------------------------
E -7-7-7\------------------------------------------------------------------

Riff 6 (Harmonics done the same as Riff 5)
e ----------<7>---<7>---------<7>-------------<5>--------------------------
B -------------<7>--------------<7>-------------<5>------------------------
G --------------------------------<7>-------------<5>----------------------
D -9-9-9\--------------7---------------4-----------------------------------
A -9-9-9\--------------7-x4------------4-x4--------------------------------
E -7-7-7\--------------5---------------2-----------------------------------
                     pm....          pm....

Riff 7 (Harmonics done the same as Riff 5)
e --------------------------<7>-----------------<5>------------------------
B ---------<7>---<7>----------<7>------------<5>---<5>---------------------
G ------------<7>---------------<7>----------------------------------------
D -9-9-9\-------------7----------------4-----------------------------------
A -9-9-9\-------------7-x4-------------4-x4--------------------------------
E -7-7-7\-------------5----------------2-----------------------------------
                    pm....           pm....

Riff 8
e -------------------------------------------------------------------------
B -------------<7>---<7>--------------7------------------------------------
G ----------------<7>---<7>-----------6-x3--7------------------------------
D -9-9-9\-------------------7----7----4-----7-x3--7----7-7-7-7-7-----------
A -9-9-9\-------------------7----7----------5-----7----7-7-7-7-7-----------
E -7-7-7\-------------------5----5----------------5----5-5-5-5-5-----------

Riff 9
e -------------------------------------------------------------------------
B -------------------------------------------------------------------------
G -------------------------------------------------------------------------
D -4----4-/-7----4---4----4-/-7--7--9--------------------------------------
A -4-x4-4-/-7-x6-4---4-x4-4-/-7--7--9--------------------------------------
E -2----2-/-5----0h2-2----2-/-5--5--7--------------------------------------

e -------------------------------------------------------------------------
B --7----7-/-10-10-10---7----7-/-10-10--10---------------------------------
G --6-x5-6-/--9--9--9---6-x5-6-/--9--9---9---------------------------------
D --4----4-/--7--7--7---4----4-/--7--7---7---------------------------------
A -------------------------------------------------------------------------
E -------------------------------------------------------------------------

e --------8------------11-----------8------------11------------------------
B ------7------------10-----------7------------10--------------------------
G ----6------------9------------6-------------9----------------------------
D --4------4-----7--------7---4-------4-----7-------7----------------------
A -------------------------------------------------------------------------
E -------------------------------------------------------------------------

Riff 10
e -------------------------------------------------------------------------
B ----------------------<7>------------------------------------------------
G ----------------------<7>-----------------------------------------7------
D -9-9-x-x---x-x-7-7----<7>----4----4-4---4----4-4---4-4-4-4---7-7--7------
A -9-9-x-x---x-x-7-7-----------4----4-4---4----4-4---4-4-4-4---7-7--5------
E -7-7-x-x---x-x-5-5-----------0h2--2-2---0h2--2-2---2-2-2-2---5-5---------
                                  

e -------------------------------------------------------------------------
B ------------------------12-\10-10----------------------------------------
G ------------------------11-\-9--9----------------------------------------
D ---9-9-x-x---x-x---7-7---9-\-7--7--4----4-4---4----4-4---4-4-4-4---------
A ---9-9-x-x---x-x---7-7-------------4----4-4---4----4-4---4-4-4-4---------
E -0-7-7-x-x---x-x---5-5-------------0h2--2-2---0h2--2-2---2-2-2-2---------
                                        

e -------------------------------------------------------------------------
B -------------------------------------------------------------------------
G ---7--7------------------------------------------------------------------
D ---7--7--7----------9--9-------------------------------------------------
A ---5--5--7----------9--9-------------------------------------------------
E ---------5-------0--7--7-------------------------------------------------
                     (thrash the strings on these last two chords)

Song Structure

Intro  x4
Riff 1 x2
Riff 2 x2
Riff 3 x1
Chorus x2
Riff 4 x1
Riff 5 x2
Riff 6 x1
Riff 7 x1
Riff 6 x1
Riff 8 x1
Chorus x1
Riff 9 x1
Chorus x1
Riff 10 x1





Comments


Popular Marilyn Manson tabs & chords
Arma-goddamn-motherfuckin-geddon Bass Tabs
Kinderfeld Bass Tabs
The Nobodies 2 Bass Tabs
Putting Holes In Happiness Chords
The Fight Song Chords
God Eat God Tabs
Let Your Ego Die Tabs
Mobscene-Golden Age Of Grotesque Tabs
Spin Me Right Round Tabs
Tournequet Tabs


Song lyrics



↑ Back to top | Tablatures and chords are parodies/interpretations of the original songs. You may use it for private study, scholarship, research or language learning purposes only
© 2014 AZChords.com Contact us | Privacy policy | DMCA | Add/correct tabs | Request tabs | Top 50 tabs