» » »

Marilyn Manson, Are You The Rabbit? Tabs (ver.2)

Artists:  A B C D E F G H I J K L M N O P Q R S T U V W X Y Z # 

Are You The Rabbit? Tabs (ver.2)

Marilyn Manson Tabs
Rating:
0/5 (0 votes)
Are You The Rabbit? lessons Tabs too difficult? Try these video lessons and learn fast
                -------------------------------------------------------------------------------
                             Are You The Rabbit - Marilyn Manson
-------------------------------------------------------------------------------

Tuning:DADGBE


main riff
e|-------------------------------------------------------------------------------|
B|-------------------------------------------------------------------------------|
G|-------------------------------------------------------------------------------|
D|7-5-7-5-7-5-7-5-7/2-0-2-0-2/5--------------------------------------------------|
A|7-5-7-5-7-5-7-5-7/2-0-2-0-2/5--------------------------------------------------|
D|7-5-7-5-7-5-7-5-7/2-0-2-0-2/5--------------------------------------------------|

chorus
e|---------------------------------------------------------------------------|
B|---------------------------------------------------------------------------|
G|---------------------------------------------------------------------------|
D|7777777777/5555555555/8888888888/10101010101010101010----------------------|
A|7777777777/5555555555/8888888888/10101010101010101010----------------------|
D|7777777777/5555555555/8888888888/10101010101010101010----------------------|

intro/solo
e|-------------------------------------------------------5-7-8-----------------|
B|-------------8b-----then solo in-----------------5-7-8-----------------------|
G|-------7x7x7x---------------------------------5-7----------------------------|
D|------------------------------------------5-7--------------------------------|
A|--------------------------------------5-7------------------------------------|
E|----------------------------------5-8----------------------------------------|


| /  slide up
| \  slide down
| h  hammer-on
| p  pull-off
| ~  vibrato
| +  harmonic
| x  Mute note
===============================================================================
            
Submit corrections

comments powered by Disqus
↑ Back to top | Marilyn Manson Tabs for Are You The Rabbit?. Lyrics for acoustic guitar and electric guitar. Tablatures and chords are parodies/interpretations of the original songs. You may use it for private study, scholarship, research or language learning purposes only