» » »

Are You The Rabbit? Bass tabs (ver.1)

Artists:  A B C D E F G H I J K L M N O P Q R S T U V W X Y Z # 

Are You The Rabbit? Bass tabs (ver.1)

Marilyn Manson
Rating:
0/5 (0 votes)

Hard to play? Try these video lessons and learn fast.
                Riff 1 x2
G|-------------------------------------|
D|-------------------------------------|
A|-------------------------------------|
D|--8--8--8--8--7--7--5--5--2~--2-5-2~-|

Riff 2 x4
G|---------------------------------------------|
D|---------------------------------------------|
A|-5--7--5--7--5--7----------------------------|
D|--------------------2--5--2---0--2--0--2-5-5-|

Riff 3 x2
G|---------------------------------------------------------------------|
D|---------------------------------------------------------------------|
A|------------------------------2--2--2--5--2--------------------------|
D|-2--2--2--5--2---5--5--5--2-------------------5--7--5--7--5--7--5--2-|

Riff 2 x4

Riff 4 x1
G|-------------------------------------------------|
D|-------------------------------------------------|
A|-------------------------------------------------|
D|-7-7-7-7-7-7-7-7-7-7-7-7-5-5-5-5-5-5-5-5-5-5-5-5-|

G|-------------------------------------------------|
D|-------------------------------------------------|
A|-1-1-1-1-1-1-1-1-1-1-1-1-3-3-3-3-3-3-3-3-3-3-3-3-|
D|-------------------------------------------------|

After Riff 4 x1
G|-------------------------|
D|-------------------------|
A|-------------------------|
D|-0--2---0--2---0--2-5-5~-|

Riff 3 x2
Riff 2 x4
Riff 1 x2
Riff 4 x1
Riff 2 until the end
            
Hard to play? Try these video lessons and learn fast. | Correct




comments powered by Disqus
↑ Back to top | Tablatures and chords are parodies/interpretations of the original songs. You may use it for private study, scholarship, research or language learning purposes only