» » »

Anti Christ Superstar Tabs (ver.6)

Artists:  A B C D E F G H I J K L M N O P Q R S T U V W X Y Z # 

Anti Christ Superstar Tabs (ver.6)

Marilyn Manson
Rating:
0/5 (0 votes)

Hard to play? Try these video lessons and learn fast.
                This song is basically one main riff played over and the order being jiggled around abit
and another smaller riff, but they are both quite easy and I managed to play along with
the song suprsingly quickly

Because of the Low tuning you may have to restring to a thicker/heavier string
Drop B tuning

  Intro
e|-------------------------------------------------------------------------|
B|-------------------------------------------------------------------------|
G|-------------------------------------------------------------------------|
D|-------------------------------------------------------------------------|
A|-------------------------------------------------------------------------|
B|--0-0---0-0---0-0---0-0---0-0---0-0---0-0---0-0--------------------------|


               x3
e|--------------|--------------------------------------------------------|
B|--------------|--------------------------------------------------------|
G|--------------|--------------------------------------------------------|x2
D|--------------|--------------------------------------------------------|
A|----------0-0-|--------------------------------------------------------|
B|-0-0-1b-0-----|--0-0-1b-0-6-5-3----------------------------------------|


This is played over each line from "you built me up..." to "...they tell you"
                                                                          x4
e|-------------------------------------------------------------------------|
B|-------------------------------------------------------------------------|
G|-------------------------------------------------------------------------|
D|-------------------------------------------------------------------------|
A|-------------------------------------------------------------------------|
B|--0-0-1b-0-----0-0-1b-0-----0-0-1b-0-----0-0-1b-0------------------------|


Repeat twice over "Repent..." to "...am I anyway?"
               x3
e|--------------|--------------------------------------------------------|
B|--------------|--------------------------------------------------------|
G|--------------|--------------------------------------------------------|x2
D|--------------|--------------------------------------------------------|
A|----------0-0-|--------------------------------------------------------|
B|-0-0-1b-0-----|--0-0-1b-0-6-5-3----------------------------------------|


Over lines "Cut the head off..." to "see your star" (this bit is played on a keyboard 
I've adapted it best I could)
                             x3
e|----------------------------|--------------------------------------------|
B|----------------------------|--------------------------------------------|
G|----------------------------|--------------------------------------------|
D|----------------------------|--------------------------------------------|
A|--5-5-4-3-2-2-5-2--2-5-2----|---5-5-4-3----------------------------------|
B|----------------------------|--------------------------------------------|


Immediatly into this
e|-------------------------------------------------------------------------|
B|-------------------------------------------------------------------------|
G|-------------------------------------------------------------------------|
D|-------------------------------------------------------------------------|
A|-------------------------------------------------------------------------|
B|--0-0-1b-0-6-5-3---0-0-1b-0-6-5-3---0-0-1b-0-6-5-3---0-0-1b-0-6-5-3------|


That goes into this over the lines "prick your finger..." to "...for bitter things"
                                                                          x4
e|-------------------------------------------------------------------------|
B|-------------------------------------------------------------------------|
G|-------------------------------------------------------------------------|
D|-------------------------------------------------------------------------|
A|-------------------------------------------------------------------------|
B|--0-0-1b-0-----0-0-1b-0-----0-0-1b-0-----0-0-1b-0------------------------|


Repeat twice over "Repent..." to "...am I anyway?" (again)
               x3
e|--------------|--------------------------------------------------------|
B|--------------|--------------------------------------------------------|
G|--------------|--------------------------------------------------------|x2
D|--------------|--------------------------------------------------------|
A|----------0-0-|--------------------------------------------------------|
B|-0-0-1b-0-----|--0-0-1b-0-6-5-3----------------------------------------|


Over lines "Cut the head off..." to "see your star" (again)
                             x3
e|----------------------------|--------------------------------------------|
B|----------------------------|--------------------------------------------|
G|----------------------------|--------------------------------------------|
D|----------------------------|--------------------------------------------|
A|--5-5-4-3-2-2-5-2--2-5-2----|---5-5-4-3----------------------------------|
B|----------------------------|--------------------------------------------|


"the time has come it is quite clear, our antichrist is almost here"
                                                                          x2
e|-------------------------------------------------------------------------|
B|-------------------------------------------------------------------------|
G|-------------------------------------------------------------------------|
D|-------------------------------------------------------------------------|
A|-------------------------------------------------------------------------|
B|--0-0---0-0---0-0---0-0---0-0---0-0---0-0---0-0--------------------------|


Slightly different ending and extra bit repeated
                            x4
e|----------------------------|--------------------------------------------|
B|----------------------------|--------------------------------------------|
G|----------------------------|--------------------------------------------|
D|----------------------------|--------------------------------------------|
A|--5-5-4-3-2-2-5-2--2-5-2----|---5---4-3----------------------------------|
B|----------------------------|--------------------------------------------|


Outro
e|-------------------------------------------------------------------------|
B|-------------------------------------------------------------------------|
G|-------------------------------------------------------------------------|
D|-------------------------------------------------------------------------|
A|-------------------------------------------------------------------------|
B|--0-0---0-0---0-0---0-0---0-0---0-0---0-0---0-0--------------------------|
            
Hard to play? Try these video lessons and learn fast. | Correct




comments powered by Disqus
↑ Back to top | Tablatures and chords are parodies/interpretations of the original songs. You may use it for private study, scholarship, research or language learning purposes only