» » »

Anti Christ Superstar Tabs (ver.1)

Artists:  A B C D E F G H I J K L M N O P Q R S T U V W X Y Z # 

Anti Christ Superstar Tabs (ver.1)

Marilyn Manson
Rating:
0/5 (0 votes)

Hard to play? Try these video lessons and learn fast.
                PROPS GO TO: Mreal

standard tuning. all riffs have major distortion

riff 1
e||--------||
B||--------||
G||--4--4--||
D||--4--4--||
A||--2--2--||
E||--------||


riff 2                   fill for riff 2
e||----------------5^--||------------------------||
B||--------------------||------------------------||
G||--4--4--7--4----2^--||--4--4--7--4--5-5-4--2--||
D||--4--4--7--4--------||--4--4--7--4--3-3-2--0--||
A||--2--2--5--2--------||--2--2--5--2------------||
E||--------------------||------------------------||


riff 3
e||--------------||
B||--------------||
G||--4--4--7--4--||
D||--4--4--7--4--||
A||--2--2--5--2--||
E||--------------||


riff 4 (this can be heard behind the first part of the chorus.just do 
quick bends on each note.
e||--------------------------------------------------||
B||-------------------------6^-6^-6^-6^-6^-6^-6^-6^--||
G||--4^-4^-4^-4^-4^-4^-4^----------------------------||
D||--------------------------------------------------||
A||--------------------------------------------------||
E||--------------------------------------------------||


riff 5 (sometimes at the end do the last half of the riff twice and then 
start the riff over again if required. just listen to the song.
e||------------------------------------------------||
B||------------------------------------------------||
G||--7--7--7--7--6--6--5--5--4--4--7--4--4-4-7--4--||
D||--7--7--7--7--6--6--5--5--4--4--7--4--4-4-7--4--||
A||--5--5--5--5--4--4--3--3--2--2--5--2--2-2-5--2--||
E||------------------------------------------------||
            
Hard to play? Try these video lessons and learn fast. | Correct




comments powered by Disqus
↑ Back to top | Tablatures and chords are parodies/interpretations of the original songs. You may use it for private study, scholarship, research or language learning purposes only