» » »

Marilyn Manson, Anti Christ Superstar Bass tabs (ver.2)

Artists:  A B C D E F G H I J K L M N O P Q R S T U V W X Y Z # 

Anti Christ Superstar Bass tabs (ver.2)

Marilyn Manson Tabs
Rating:
5/5 (7 votes)
Anti Christ Superstar lessons Tabs too difficult? Try these video lessons and learn fast
                Marilyn Manson 
LENGTH: 5:14

Finally, this is the correct tab for this song.
Everyone else's is so complelty wrong.
It's pretty simple just get the rythem right, fun
song! :)
anything is wrong or corrections thanks

Intro. Repeated through the song


G -----------------------------
D -----------------------------
A -----------------------------
E -77--77--77--77-77--77--77--77 x1   "Hey,Hey"

drums enter
G ------------------------------
D ------------------------------
A -----5------------------------
E -77---7---5------------------- x3  

G ------------------------------
D ------------------------------
A -----5--------8--7--5---------
E -77----7---------------------- x1

G ------------------------------
D ------------------------------
A -----5------------------------
E -77---7---5------------------- x3 


G ------------------------------
D ------------------------------
A -----5--------8--7--5---------
E -77----7---------------------- x1

G ------------------------------
D ------------------------------
A ------5-----------------------
E --77-----7-------------------- x16 "you bring me
up..."



G ------------------------------
D ------------------------------
A -----5------------------------
E -77---7---5------------------- x3 


G ------------------------------
D ------------------------------
A -----5--------8--7--5---------
E -77----7---------------------- x1

G ------------------------------
D ------------------------------
A -----5------------------------
E -77---7---5------------------- x3 


G ------------------------------
D ------------------------------
A -----5--------8--7--5---------
E -77----7---------------------- x1

G---------------------------------
D---0-----------------------------
A------4--3-----5--------5--------
E------------77---7----7--7------- X4

"I AM THE HYDRA"
G--------------------------------
D--------------------------------
A------5----8-7-5----------------
E---77---7-----------------------  X4


G ------------------------------
D ------------------------------
A ------5-----------------------
E --77-----7-------------------- x16 "PRICK YOUR
FINGER..." 

G ------------------------------
D ------------------------------
A -----5------------------------
E -77---7---5------------------- x3 


G ------------------------------
D ------------------------------
A -----5--------8--7--5---------
E -77----7---------------------- x1

G ------------------------------
D ------------------------------
A -----5------------------------
E -77---7---5------------------- x3 


G ------------------------------
D ------------------------------
A -----5--------8--7--5---------
E -77----7---------------------- x1


G---------------------------------
D---0-----------------------------
A------4--3-----5--------5--------
E------------77---7----7--7------- X4

G -----------------------------
D -----------------------------
A -----------------------------
E -77--77--77--77-77--77--77--77 x2   "Hey,Hey"

G---------------------------------
D---0-----------------------------
A------4--3-----5--------5--------
E------------77---7----7--7------- X8

G -----------------------------
D -----------------------------
A -----------------------------
E -77--77--77--77-77--77--77--77 x2

Thats all its simple have fun

"when you are suffering, know that, I have betrayed
you"
            

comments powered by Disqus
↑ Back to top | Marilyn Manson Bass for Anti Christ Superstar. Lyrics for acoustic guitar and electric guitar. Tablatures and chords are parodies/interpretations of the original songs. You may use it for private study, scholarship, research or language learning purposes only