» » »

Bongo Bong Tabs (ver.2)

Artists:  A B C D E F G H I J K L M N O P Q R S T U V W X Y Z # 

Bongo Bong Tabs (ver.2)

Manu Chao
Rating:
0/5 (0 votes)
Tabs too difficult? Try these video lessons and learn fast.
                Manu Chao
Bongo Bong


TheChords for this Song are:

    Am  -  Am  -  Dm  -  G


Guitar I:

E----------------------------------------------
B-----1---1------1---1------3---3-----0---0----
G-------2----------2----------2---------0------
D-------------------------0--------------------
A---0----------0-------------------------------
E-----------------------------------3----------


Guitar II:

E-----17~~~~---
B--------------
G--------------    <---- slight vibrato
D--------------
A--------------
E--------------
            
Tabs too difficult? Try these video lessons and learn fast.


comments powered by Disqus
↑ Back to top | Tablatures and chords are parodies/interpretations of the original songs. You may use it for private study, scholarship, research or language learning purposes only