» » »

Man Overboard, World Favorite Tabs (ver.2)

Artists:  A B C D E F G H I J K L M N O P Q R S T U V W X Y Z # 

World Favorite Tabs (ver.2)

Man Overboard Tabs
Rating:
5/5 (3 votes)
World Favorite lessons Tabs too difficult? Try these video lessons and learn fast
                -------------------------------------------------------------------------------
                             world favorite(acoustic) -man overboard
-------------------------------------------------------------------------------


Tuning:e standard
this is my first tab so rate comment and uhh yeah lol they arent 100 percent but its 
then nuthing u know.ur gonna have to listen to the song to get the rhythm but it isnt hard

palm mute on this part
e|---------------------------------------------------------------------------|
B|---------------------------------------------------------------------------|
G|--6---8---10-----------6---8---10------------------------------------------|
D|--6---8---10-----------6---8---10------------------------------------------|
A|--4---6---8------------4---6---8-------------------------------------------|
E|---------------------------------------------------------------------------||  Its 
at night,  and you're in your bed nice and tight,


e|------------------------------------------------------------------------------|
B|---------------------------------------------------------------4--------------|
G|--6---8---10-----------------------------------5---------------0--------------|
D|--6---8---10-----------------------------------6---------------5---do 8x -----|
A|--4---6---8------------------------------------6----do 5x      6--------------|
E|-----------------------------------------------4------------------------------|
maybe you're dreaming of me, i am calling you, i am wishing you were here..


e|---------------------------------------------------------------------------|
B|---------------------------------------------------------------------------|
G|--6---8---10-----------6---8---10------------------------------------------|
D|--6---8---10-----------6---8---10------------------------------------------|
A|--4---6---8------------4---6---8-------------------------------------------|
E|---------------------------------------------------------------------------|

i hope i didnt annoy you today.If i did, you answered anyway

e|----------------------------------------------------------------------------|
B|-------------------------------------------------------------4--------------|
G|--6---8---10-----------------------------------5-------------0--------------|
D|--6---8---10-----------------------------------6-------------5---do 8x -----|
A|--4---6---8------------------------------------6----do 5x    6--------------|
E|-----------------------------------------------4----------------------------|

Now im laying in my bed, im hearing you...      wishing i could feel too.

e|----------------------------------------------------------------------------|
B|----------------------------------------------------------------------------|
G|--6------------------------------------------6------------------------------|
D---6-------------------3----------------------6--------3----------6----------|
A|--4---do about 8x-----3---do 8x------------- 4 do 8x--3--do 8x---6--do 5x---|
E|--------------------- 1-------------------------------1----------4----------|

i miss her..                   i wanted to tell her,


e|---------------------------------------------------------------------------|
B|---------------------------------------------------------------------------|
G|--6---------5-----------------6----------5---------------------------------|
D|--6--do 8x--6--do 8x----------6--do 8x---6---do 8x-------------------------|
A|--4---------6-----------------4----------6---------------------------------|
E|------------4----------------------------4---------------------------------|

i spoke to myself in the mirror for a while tonight,And i made a promise,
That i would never f**k up having you in my life,And to be honest..


e|---------------------------------------------------------------------------|
B|---------------------------------------------------------------------------|
G|--6-6-x-6-6-6-x-6-6-6-x-6-6-6----------------------------------------------|
D|--6-6-x-6-6-6 x-6-6-6-x-6-6-6-x--3-3-x-3-3-3-x-3-3-3-x-3--6--repeat this---|
A|--4-4-x-4-4-4 x-4-4-4-x-4-4-4-x--3-3-x-3-3-3-x-3-3-3-x-3--6--whole part----|
E|------x-------x-------x-------x--1-1-x-1-1-1-x-1-1-1-x-1--4----------------|

i think you're my favorite girl i've ever met, yeah,
i think you're my favorite girl i've ever met

well after this u just repeat the whole thing from the begining just diffrent words


I bought a new notebook for the road.
Covered it with your area code.
Over and over again,
It's tattooed by the pen and I wish it was my home.
`Cause I kinda hate everyone I know
and lately I've been feeling so low.
Come get inside my bed
you make me feel dead

i miss her..i wanted to tell her,
i spoke to myself in the mirror for a while tonight,
And i made a promise,
That i would never f**k up having you in my life,
And to be honest..
i think you're my favorite girl i've ever met, yeah,
i think you're my favorite girl i've ever met

i spoke to myself in the mirror for a while tonight,
And i made a promise,
That i would never f**k up having you in my life,
And to be honest.. i think you're my favorite girl i've ever met, yeah,
i think you're my favorite girl i've ever met

(and i just wanted to tell her..)
            

comments powered by Disqus
↑ Back to top | Man Overboard Tabs for World Favorite. Lyrics for acoustic guitar and electric guitar. Tablatures and chords are parodies/interpretations of the original songs. You may use it for private study, scholarship, research or language learning purposes only