» » »

Man Overboard, I Saw Behemoth And It Ruled Tabs (ver.1)

Artists:  A B C D E F G H I J K L M N O P Q R S T U V W X Y Z # 

I Saw Behemoth And It Ruled Tabs (ver.1)

Man Overboard Tabs
Rating:
1/5 (2 votes)
I Saw Behemoth And It Ruled lessons Tabs too difficult? Try these video lessons and learn fast
                -----------------------------------------------------------------------------
-----------------------------------------------------------------------------

Great song, great band.

intro: 0:00-0:12
e|----------------------------------------------------|
b|----------------------------------------------------|
g|--5-3-5-3-------------------------------------------|
d|---------------5-3-5-3-----5-3--1-3-5--3-5-6-5-3-1--|
a|----------------------------------------------------|
E|----------------------------------------------------|

e|----------------------------------------|
b|---------4------------------------------|
g|--5-3-5----------3----------------------|
d|-----------5-3-5-----5-3-1-3-1-0-1------|
a|----------------------------------------|
E|----------------------------------------|

verse: 0:12-0:35
"it's like they need two separate planets..."

repeat x2
e|--------------------------------------------|
b|--------------------------------------------|
g|-------8---------------------8--------------|
d|--6----8----8---10-----6----8---8----6------|
a|--6----6----8---10-----6----6---8----6------|
E|--4---------6----8-----4---------6----4-----|

0:35-0:48
"at least she's tryin'..."

rhythm guitar:
repeat x2
e|----------------------|
b|----------------------|
g|------8---------------|
d|--6---8---8---10------|
a|--6---6---8---10------|
E|--4-------6---8-------|


lead guitar:
repeat x8
e|-------------------------|
b|--9-8----11-9-8-9-8------|
g|------8------------------|
d|-------------------------|
a|-------------------------|
E|-------------------------|


0:48-1:10
"and maybe some day on a cloud..."

e|------------------------------|
b|------------------------------|
g|--5---8-----------------------|
d|--5---8----6--6--6--6--6------|
a|--3---6----6--6--6--6--6------|
E|-----------4--4--4--4--4------|
    p.m................

1:10-1:36
"whoa...I'm trying to keep on the right side.."

repeat x4
e|------------------|               e|------|
b|------------------|               b|------|
g|--5---8-----------|               g|------|
d|--5---8----8------|  end on       d|--6---|
a|--3---6----8------|               a|--6---|
E|-----------6------|               E|--4---|


1:37-1:47
back to intro

e|----------------------------------------------------|
b|----------------------------------------------------|
g|--5-3-5-3-------------------------------------------|
d|---------------5-3-5-3-----5-3--1-3-5--3-5-6-5-3-1--|
a|----------------------------------------------------|
E|----------------------------------------------------|

e|----------------------------------------|
b|---------4------------------------------|
g|--5-3-5----------3----------------------|
d|-----------5-3-5-----5-3-1-3-1-0-1------|
a|----------------------------------------|
E|----------------------------------------|


1:47-2:12
"It's like they have some sick attraction..."

repeat x2
e|--------------------------------------------|
b|--------------------------------------------|
g|-------8---------------------8--------------|
d|--6----8----8---10-----6----8---8----6------|
a|--6----6----8---10-----6----6---8----6------|
E|--4---------6----8-----4---------6----4-----|


2:12-2:36
"and maybe some day on a cloud..."

e|------------------------------|
b|------------------------------|
g|--5---8-----------------------|
d|--5---8----6--6--6--6--6------|
a|--3---6----6--6--6--6--6------|
E|-----------4--4--4--4--4------|
    p.m................


2:36-end
"whoa...I'm trying to keep on the right side.."

repeat x4
e|------------------|       
b|------------------|           
g|--5---8-----------|          
d|--5---8----8------|  
a|--3---6----8------|            
E|-----------6------|


end 
e|-------------|
b|-------------|
g|--8----------|
d|--8---6--8---|
a|--6---6--8---|
e|------4--6---|
            
Submit corrections

comments powered by Disqus
↑ Back to top | Man Overboard Tabs for I Saw Behemoth And It Ruled. Lyrics for acoustic guitar and electric guitar. Tablatures and chords are parodies/interpretations of the original songs. You may use it for private study, scholarship, research or language learning purposes only