>
 >
World Favorite

World Favorite Guitar Tabs

Man Overboard - World Favorite chords, tabs, tablatures, lyrics

Guitar lessons | Add/correct | Request | Top 50 tabs Artists:  A B C D E F G H I J K L M N O P Q R S T U V W X Y Z 0-9

World Favorite Guitar Tabs – Man Overboard

CD, Sheet music, Poster

Do you like World Favorite? Share with your friends now
Bass TabsTabsTabs v2
------------------------------------------------------------------------------
------------------------------------------------------------------------------



Tuning: Eb (Half Step Down)

VERSE ONE (0:00):

   (x2)
eb|---------------------------------|------------------------------------------|
Bb|---------------------------------|------------------------------------------|
Gb|---------------------------------|-------------------9-9-9-9-9-9-9-9--------|
Db|--7-7-----7----------------------|--7-7-7-7-7-7-7-7--9-9-9-9-9-9-9-9--------|
Ab|--5-5-----5-2-2-----2-4-4--(x3)--|--7-7-7-7-7-7-7-7--7-7-7-7-7-7-7-7--------|
Eb|------------0-0-----0-2-2--------|--5-5-5-5-5-5-5-5-------------------------|
     P.M--------------------|
  1    It's 11:30  at night            wishing you were here
  2    I hope I didn't annoy             Wishing I could feel too

   GUITAR TWO plays an alternate version. Same chords, higher up the neck.
   If playing solo, see what sounds better to you.
eb|---------------------------------|------------------------------------------|
Bb|---------------------------------|------------------------------------------|
Gb|---------------------------------|-------------------9-9-9-9-9-9-9-9--------|
Db|--7-7-----7-9-9-----9-11-11------|--7-7-7-7-7-7-7-7--9-9-9-9-9-9-9-9--------|
Ab|--5-5-----5-7-7-----7--9--9-(x3)-|--7-7-7-7-7-7-7-7--7-7-7-7-7-7-7-7--------|
Eb|---------------------------------|--5-5-5-5-5-5-5-5-------------------------|
     P.M----------------------|

PRECHORUS ONE (0:24):

   (x1)
eb|----------------------------------------------------------------------------|
Bb|----------------------------------------------------------------------------|
Gb|--7-----------------------------7----------------9-9-9-9-9------------------|
Db|--7--------------4--------------7---------7------9-9-9-9-9------------------|
Ab|--5--------------4--------------5---------7------7-7-7-7-7------------------|
Eb|-----------------2------------------------5---------------------------------|
                                                    P.M------|
                   I miss her               I wanted to tell her

CHORUS ONE (0:37):

   (x1)
eb|--------------------------------------------------------------------------|
Bb|--------------------------------------------------------------------------|
Gb|--7-7-7-7-7-7-7-7-7-7-7-7-7-7-7-7-----------------------------------------|
Db|--7-7-7-7-7-7-7-7-7-7-7-7-7-7-7-7--7-7-7-7-7-7-7-7-7-7-7-7-7-7-7-7--------|
Ab|--5-5-5-5-5-5-5-5-5-5-5-5-5-5-5-5--7-7-7-7-7-7-7-7-7-7-7-7-7-7-7-7--------|
Eb|-----------------------------------5-5-5-5-5-5-5-5-5-5-5-5-5-5-5-5--------|
      I spoke to myself                         And I made a promise

   (x1)
eb|--------------------------------------------------------------------------|
Bb|--------------------------------------------------------------------------|
Gb|--7-7-7-7-7-7-7-7-7-7-7-7-7-7-7-7-----------------------------------------|
Db|--7-7-7-7-7-7-7-7-7-7-7-7-7-7-7-7--4-4-4-4-4-4-4-4-2-2-2-2-2-2-2-2--------|
Ab|--5-5-5-5-5-5-5-5-5-5-5-5-5-5-5-5--4-4-4-4-4-4-4-4-2-2-2-2-2-2-2-2--------|
Eb|-----------------------------------2-2-2-2-2-2-2-2-0-0-0-0-0-0-0-0--------|
      That I would never fuck up                 And   to  be  honest

   (x2)
eb|--------------------------------------------------------------------------|
Bb|--------------------------------------------------------------------------|
Gb|--7-7-7----7-7-7----7-7-7----7-7-7----------------------------------------|
Db|--7-7-7----7-7-7----7-7-7----7-7-7----4-4-4----4-4-4----4-4-4---x-7-------|
Ab|--5-5-5----5-5-5----5-5-5----5-5-5----4-4-4----4-4-4----4-4-4---x-7-------|
Eb|--------------------------------------2-2-2----2-2-2----2-2-2---x-5-------|
  1    I      think     you're my         girl    I've     ever met, yeah
  2    I      think     you're my         girl    I've     ever met

VERSE TWO (1:01):

   (x2)
eb|---------------------------------|------------------------------------------|
Bb|---------------------------------|------------------------------------------|
Gb|---------------------------------|-------------------9-9-9-9-9-9-9-9--------|
Db|--7-7-----7----------------------|--7-7-7-7-7-7-7-7--9-9-9-9-9-9-9-9--------|
Ab|--5-5-----5-2-2-----2-4-4--(x3)--|--7-7-7-7-7-7-7-7--7-7-7-7-7-7-7-7--------|
Eb|------------0-0-----0-2-2--------|--5-5-5-5-5-5-5-5-------------------------|
     P.M--------------------|
  1  I bought a new notebook              Wish it was my own
  2  Cause I kinda hate                  out  there in the unknown

PRECHORUS TWO (Chugga Chug Chug) (1:26):

   (x1)
eb|----------------------------------------------------------------------------|
Bb|----------------------------------------------------------------------------|
Gb|--7--7-7-7-7-7-7-7-7-7-7-7-7-7-7--------------------------------------------|
Db|--7--7-7-7-7-7-7-7-7-7-7-7-7-7-7---4--4-4-4-4-4-4-4-4-4-4-4-4-4-4-----------|
Ab|--5--5-5-5-5-5-5-5-5-5-5-5-5-5-5---4--4-4-4-4-4-4-4-4-4-4-4-4-4-4-----------|
Eb|-----------------------------------2--2-2-2-2-2-2-2-2-2-2-2-2-2-2-----------|
        P.M------------------------|     P.M------------------------|
                                     I     miss    her
   (x1)
eb|----------------------------------------------------------------------------|
Bb|----------------------------------------------------------------------------|
Gb|--7--7-7-7-7-7-7-7-7-7-7-7-7-7-7-------------------9-9-9-9-9----------------|
Db|--7--7-7-7-7-7-7-7-7-7-7-7-7-7-7---7--7-7-7-7-7-7--9-9-9-9-9----------------|
Ab|--5--5-5-5-5-5-5-5-5-5-5-5-5-5-5---7--7-7-7-7-7-7--7-7-7-7-7----------------|
Eb|-----------------------------------5--5-5-5-5-5-5---------------------------|
        P.M------------------------|                  P.M------|
                                          I wanted to tell her

CHORUS TWO (1:38):

   (x1)
eb|--------------------------------------------------------------------------|
Bb|--------------------------------------------------------------------------|
Gb|--7-7-7-7-7-7-7-7-7-7-7-7-7-7-7-7-----------------------------------------|
Db|--7-7-7-7-7-7-7-7-7-7-7-7-7-7-7-7--7-7-7-7-7-7-7-7-7-7-7-7-7-7-7-7--------|
Ab|--5-5-5-5-5-5-5-5-5-5-5-5-5-5-5-5--7-7-7-7-7-7-7-7-7-7-7-7-7-7-7-7--------|
Eb|-----------------------------------5-5-5-5-5-5-5-5-5-5-5-5-5-5-5-5--------|
     I spoke to myself                         And I made a promise

   (x1)
eb|--------------------------------------------------------------------------|
Bb|--------------------------------------------------------------------------|
Gb|--7-7-7-7-7-7-7-7-7-7-7-7-7-7-7-7-----------------------------------------|
Db|--7-7-7-7-7-7-7-7-7-7-7-7-7-7-7-7--4-4-4-4-4-4-4-4-2-2-2-2---7------------|
Ab|--5-5-5-5-5-5-5-5-5-5-5-5-5-5-5-5--4-4-4-4-4-4-4-4-2-2-2-2---7------------|
Eb|-----------------------------------2-2-2-2-2-2-2-2-0-0-0-0---5------------|
                                                      P.M----|
     That I would never fuck up                 And   to  be  honest

   (x2)
eb|--------------------------------------------------------------------------|
Bb|--------------------------------------------------------------------------|
Gb|--7-7-7----7-7-7----7-7-7----7-7-7----------------------------------------|
Db|--7-7-7----7-7-7----7-7-7----7-7-7----4-4-4----4-4-4----4-4-4---x-7-------|
Ab|--5-5-5----5-5-5----5-5-5----5-5-5----4-4-4----4-4-4----4-4-4---x-7-------|
Eb|--------------------------------------2-2-2----2-2-2----2-2-2---x-5-------|
  1   I       think     you're my         girl     I've     ever met, yeah
  2   I       think     you're my         girl     I've     ever met

BRIDGE (2:01):

   (x1)
eb|----------------------------------------------------------------------------------|
Bb|----------------------------------------------------------------------------------|
Gb|--7-7-7-7-7-7-7-7-7-7-7-7-7-9-9-9----11-11-11-11-11-11-11-11-11-11-11-11-11-9-9-9-|
Db|--7-7-7-7-7-7-7-7-7-7-7-7-7-9-9-9----11-11-11-11-11-11-11-11-11-11-11-11-11-9-9-9-|
Ab|--5-5-5-5-5-5-5-5-5-5-5-5-5-7-7-7-----9--9--9--9--9--9--9--9--9--9--9--9--9-7-7-7-|
Eb|----------------------------------------------------------------------------------|
                                          Girl,   girl,    girl

   (x1)
eb|--------------------------------------------------------------------------|
Bb|--------------------------------------------------------------------------|
Gb|--7-7-7-7-7-7-7-7-7-7-7-7-7-9-9-9-----------------------9-9----9-9--------|
Db|--7-7-7-7-7-7-7-7-7-7-7-7-7-9-9-9----7-7-7-7-7-7-7-7----9-9----9-9--------|
Ab|--5-5-5-5-5-5-5-5-5-5-5-5-5-7-7-7----7-7-7-7-7-7-7-7----7-7----7-7--------|
Eb|-------------------------------------5-5-5-5-5-5-5-5----------------------|
                                          Girl,       girl,     girl

FINAL CHORUS (2:14):

   (x1)
eb|--------------------------------------------------------------------------|
Bb|--------------------------------------------------------------------------|
Gb|--7-7-7-7-7-7-7-7-7-7-7-7-7-7-7-7-----------------------------------------|
Db|--7-7-7-7-7-7-7-7-7-7-7-7-7-7-7-7--7-7-7-7-7-7-7-7-7-7-7-7-7-7-7-7--------|
Ab|--5-5-5-5-5-5-5-5-5-5-5-5-5-5-5-5--7-7-7-7-7-7-7-7-7-7-7-7-7-7-7-7--------|
Eb|-----------------------------------5-5-5-5-5-5-5-5-5-5-5-5-5-5-5-5--------|
     I spoke to myself                         And I made a promise

   (x1)
eb|--------------------------------------------------------------------------|
Bb|--------------------------------------------------------------------------|
Gb|--7-7-7-7-7-7-7-7-7-7-7-7-7-7-7-7-----------------------------------------|
Db|--7-7-7-7-7-7-7-7-7-7-7-7-7-7-7-7--4-4-4-4-4-4-4-4-2-2-2-2-2-2-2-2--------|
Ab|--5-5-5-5-5-5-5-5-5-5-5-5-5-5-5-5--4-4-4-4-4-4-4-4-2-2-2-2-2-2-2-2--------|
Eb|-----------------------------------2-2-2-2-2-2-2-2-0-0-0-0-0-0-0-0--------|
     That I would never fuck up                 And   to  be  honest

   (x2)
eb|--------------------------------------------------------------------------|
Bb|--------------------------------------------------------------------------|
Gb|--7-7-7-7-7-7-7-7-7-7-7-7-7-7-7-7-----------------------------------------|
Db|--7-7-7-7-7-7-7-7-7-7-7-7-7-7-7-7--4-4-4-4-4-4-4-4-4-4-4-4-4-7-7-7--------|
Ab|--5-5-5-5-5-5-5-5-5-5-5-5-5-5-5-5--4-4-4-4-4-4-4-4-4-4-4-4-4-7-7-7--------|
Eb|-----------------------------------2-2-2-2-2-2-2-2-2-2-2-2-2-5-5-5--------|
  1   I       think     you're my      girl     I've     ever met, yeah
  2   I       think     you're my      girl     I've     ever met

   (x2)
eb|--------------------------------------------------------------------------|
Bb|--------------------------------------------------------------------------|
Gb|--7-7-7-7-7-7-7-7-7-7-7-7-7-7-7-7-----------------------------------------|
Db|--7-7-7-7-7-7-7-7-7-7-7-7-7-7-7-7--4-4-4-4-4-4-4-4-4-4-4-4-4-4-4-4--------|
Ab|--5-5-5-5-5-5-5-5-5-5-5-5-5-5-5-5--4-4-4-4-4-4-4-4-4-4-4-4-4-4-4-4--------|
Eb|-----------------------------------2-2-2-2-2-2-2-2-2-2-2-2-2-2-2-2--------|
  1   tell her,    I just wanted to    tell her            I just
  2   tell her,    I just wanted to    tell her

AND END WITH (2:50)

eb|--------|      eb|--------|
Bb|--------|      Bb|--------|
Gb|-----2--|      Gb|--9-----|
Db|--2--2--|  OR  Db|--9--7--|
Ab|--2--0--|      Ab|--7--7--|
Eb|--0-----|      Eb|-----5--|
   OPTION A          OPTION B





Comments


Popular Man Overboard tabs & chords
Dear You Chords
I Like You Chords
Love Your Friends, Die Laughing 1 Chords
Wide Awake 1 Chords
Cry Baby 1 Tabs
I Saw Behemoth And It Ruled 1 Tabs
Love Your Friends Die Laughing Electric Tabs
The Absolute Worst Tabs
Atlas Ukulele
Decemberism Ukulele


Song lyrics



↑ Back to top | Tablatures and chords are parodies/interpretations of the original songs. You may use it for private study, scholarship, research or language learning purposes only
© 2014 AZChords.com Contact us | Privacy policy | DMCA | Add/correct tabs | Request tabs | Top 50 tabs