» » »

Sweet Ride Tabs (ver.1)

Artists:  A B C D E F G H I J K L M N O P Q R S T U V W X Y Z # 

Sweet Ride Tabs (ver.1)

Mando Diao
Rating:
0/5 (0 votes)

Hard to play? Try these video lessons and learn fast.
                Guitar 1:
---------------------------------------x-----x----
---------------------------------------x-----x----
---5---5---------3-------5-----------x-----x----
---5---5---------3-------5-----------x-----x----
---3---3---------1-------3-----------x-----x----
---x---x----------x------x------------x-----x----

Guitar 2:
--------------------------------
------8--8---8------------------
------8--8---8------------------
------8--8---8--------------------
------6--6---6-----------------------
---------------------------------

C			    Bb
Get your motor runnin’ cause my engine’s too hot
             G#                                  G
And the cooler’s runnin’ dry as a pimp
C		                        Bb
Get your things together cause I’m blowing my mind
	G#	          G
And that Ronnie is an MTV star

           C			  F
It’s my soul honey, that’s up at eighty
	        D                           C
And my sweet ride has blown my lady away
F	            D		
Soon, my motor’s runnin’ wild and I’m gone



Get your wheelers spinning cause I’m riding a lot
And my lady’s back at home with her sins
Get your wheelers spinning cause I’m cruising at last
And my destination’s somewhere between

It’s my soul honey that’s up at eighty
And my sweet ride love and tries who make sense
Man, I’m runnin, wild and now I’m gone

Here comes Ronnie!

It’s my soul honey...
            
Hard to play? Try these video lessons and learn fast. | Correct




comments powered by Disqus
↑ Back to top | Tablatures and chords are parodies/interpretations of the original songs. You may use it for private study, scholarship, research or language learning purposes only