>
 >
Clean Town

Clean Town Guitar Tabs

Mando Diao - Clean Town chords, tabs, tablatures, lyrics

Guitar lessons | Add/correct | Request | Top 50 tabs Artists:  A B C D E F G H I J K L M N O P Q R S T U V W X Y Z 0-9

Clean Town Guitar Tabs – Mando Diao

CD, Sheet music, Poster

Do you like Clean Town? Share with your friends now
TabsTabs v2
***************************
**Mando Diao - Clean Town**
***************************



Intro:
   Am              Cm
e|-0---------------3-|
B|-1---0h1---------4-|
G|-2-------2-------5-|
D|-2---------2-----5-|
A|-0-----------0-2-3-|
E|-------------------|

   G          Em            G             Em        Am   Cm  G
e|----------------------------------------------------------|--...
B|-/10--12-12---10\8-10-8-10-10--10/12-10\------------------|--...
G|-----------------------------------------4---(4)5-\2--/5--|4-...
D|----------------------------------------------------------|--...
A|----------------------------------------------------------|--...
E|----------------------------------------------------------|--...

Verse:
G                       Em
 You wanna worship its feelings
Am                              D               G
 The ones who's squeezing the shame from every man
G                   Em
 If mama says it's dinner time
Am                  Cm
 if she ruins your love, run away

Bridge:
Bm                  Em*
 So you live in a prison
Bn                       Em
 So you're wasting your life
Bm                C                D
 On a system you never will understand
                               G
 Are you the one I dreamed of man!

Chorus:
G                   Em
 Clean town if you want to get away
G                             Em
 You pack your cases and you hope for a better day
  Am                 C                         G
 Mama's alright she said she didn't want your love
G                   Em
 Clean town if you want to get away,
G                             Em
 you pack your cases and you hope for a better day
  Am                 Cm                           G
 Joni's alright she said she didn't want your... love!

1st solo:

e|-------------------------------------------------------------------------|
B|--------14b(16)b14-12----12-12----12-12-------------------------------12-|
G|-14b----14b(16)b14-12----12-12----12-12-------------------------12h14-12-|
D|-14b------------------14-------14---------14-12--12h14-12-------12h14----|
A|--------------------------------------------------------14-12------------|
E|-------------------------------------------------------------------------|

e|-------------------------------------------------------------------------|
B|-------14b-----(16)b14---------------------------------------------------|
G|-12-10-14b-----(16)b14-12------------12-14-12-14b----16b14-12------------|
D|----------------------------14-12-14-------------------------------------|
A|-------------------------------------------------------------------------|
E|-------------------------------------------------------------------------|

Verse:
G                         Em
 Won't you walk down the main street
Am                     D            G
 Take the bridge over never ending rails
G                    Em
 And even if you're falling down
Am                    Cm
 That's an open door to the outside world

Bridge:
Bm                 Em
 So you live in a bubble
Bm                       Em
 So you're wasting your life
Bm                C                D
 On a system you never will understand
                               G
 Are you the one I dreamed of man!

Chorus
G                   Em
 Clean town if you want to get away
G                             Em
 You pack your cases and you hope for a better day
  Am                 C                         G
 Mama's alright she said she didn't want your love
G                   Em
 Clean town if you want to get away,
G                             Em
 you pack your cases and you hope for a better day
  Am                 Cm                           G
 Joni's alright she said she didn't want your... love!

2nd solo:

e|-------------------------------------------------------------------------------------------------|
B|-14b-----(16)b14-12-----------------12----------15b-15b-14b-(16)b14-12-14-12---------15----------|
G|-14b-----(16)b14-12----12--12-------12h14---------------14b-(16)b14-12-14-12---14b16----16b14-12-|
D|--------------------14-12--12-12-14-------14------------------------------12---------------------|
A|-------------------------------------------------------------------------------------------------|
E|-------------------------------------------------------------------------------------------------|

e|-------------------------------------------------------|
B|-------------------------------------------------------|
G|-14-12-14-12-14--/16-16--14\12-14-12-14-14--/16-14\----|
D|----------------------------------------------------9--|
A|-------------------------------------------------------|
E|-------------------------------------------------------|

e|--------------------------------------------------------------------------------------------------|
B|-121212----12-14b(16)b14-12-121212----12-14b(16)b14-12-121212----12-14-12-14-14-------------------|
G|-121212-12-12-14b(16)b14-12-121212-12-12-14b(16)b14-12-121212-12-12-14-12-14-14b16-16b14-12-------|
D|--------14-------------------------14-------------------------14----------------------------14----|
A|-----------------------------------------------------------------------------------------------14-|
E|--------------------------------------------------------------------------------------------------|

Bridge:
Bm                    Em
 You can drive to the east coast
Bm                 Em
 Disappear for a while
Bm                     C                          D
 Now put the band-echo on, then we'll give him a ride
                               G
 Are you the one I dreamed of man!

Chorus: Think you know it by heart... mind, now there's a break with feedback from a C 
When Gustaf starts shouting "Looove!" just alter between G and
E minor and finish with a C minor.
-----------------------------------------------------------------------------------------------------
* It's actually more like:
   Em   Em Bm Em
e|-7----7--7--7-|
B|-8----8--7--8-|
G|-9----9--7--9-|
D|-9----9--9--9-|
A|-7----7-----7-|
E|--------------|





Comments


Popular Mando Diao tabs & chords
Down In The Past 1 Bass Tabs
En Sangarsaga Chords
Killer Kaczynski Chords
Lauren's Cathedral Chords
All My Senses Tabs
No More Tears Intro Tabs
Ochrasy 1 Tabs
India Love Ukulele
Misty Mountains Ukulele
Ringing Bells Ukulele


Song lyrics



↑ Back to top | Tablatures and chords are parodies/interpretations of the original songs. You may use it for private study, scholarship, research or language learning purposes only
© 2014 AZChords.com Contact us | Privacy policy | DMCA | Add/correct tabs | Request tabs | Top 50 tabs