>
 >
Burning Up

Burning Up Guitar Tabs

Mando Diao - Burning Up chords, tabs, tablatures, lyrics

Guitar lessons | Add/correct | Request | Top 50 tabs Artists:  A B C D E F G H I J K L M N O P Q R S T U V W X Y Z 0-9

Burning Up Guitar Tabs – Mando Diao

CD, Sheet music, Poster

Do you like Burning Up? Share with your friends now
ChordsTabsTabs v2Ukulele
e|--------------------------------------|
B|--------------------------------------|
G|--------------------------------------|
D|--------------------------------------|
A|------6-6---6-6-7-9-9-7-9-10----------|
E|--7-8-----8---------------------------|

e|--------------------------------------|
B|--------------------------------------|
G|--------------------------------------|
D|--777--------777----------------------|
A|------10-9-9-----10-9-9-7-9-10-9-10---|
E|------------------------------------7-|

The next part is tremolo picking, every number stands for 8 hits.

e|-------------------------------------|
B|-------------------------------------|
G|--16-16-14-11-12-12-12-12-11-11-8-8--|
D|-------------------------------------|
A|-------------------------------------|
E|-------------------------------------|

Last note is normal picking.

e|--------------|
B|--------------|
G|--------------|
D|--------------|
A|--9-----------|
E|--------------|





Comments


Popular Mando Diao tabs & chords
Added Family Chords
Go Out Tonight 1 Chords
Gold 2 Chords
Chi Ga Tabs
Ochrasy 2 Tabs
Blue Lining White Trenchcoat Ukulele
Long Before Rock N Roll Ukulele
Lustful Life Ukulele
Popovic Ukulele
Sweet Ride Ukulele


Song lyrics



↑ Back to top | Tablatures and chords are parodies/interpretations of the original songs. You may use it for private study, scholarship, research or language learning purposes only
© 2014 AZChords.com Contact us | Privacy policy | DMCA | Add/correct tabs | Request tabs | Top 50 tabs