» » »

Mago De Oz, La Cruz De Santiago Tabs (ver.1)

Artists:  A B C D E F G H I J K L M N O P Q R S T U V W X Y Z # 

La Cruz De Santiago Tabs (ver.1)

Mago De Oz Tabs
 Rating:
4/5 (4 votes)
La Cruz De Santiago lessons Tabs too difficult? Try these video lessons and learn fast
                esta es mi tercera trascripcion espero sea de su agrado esta tabs se la dedico para sarahi mi tesoro

intro
----------------------------------------------------------|
----------------------------------------------------------|
--7--9x-x-x-x----9x-x-x-x----9x-x-x--7-9x-x-x-x--9x-x-x---|
--7--9x-x-x-x----9x-x-x-x----9x-x-x--7-9x-x-x-x--9x-x-x---|
--5--7x-x-x-x----7x-x-x-x----7x-x-x--5-7x-x-x-x--7x-x-x---|
----------------------------------------------------------|

parte de violin (super rápido)
X2
-----------------------------------------------------------|
----12-12-10-8-10-8-7-8-7------12-12-10-8-10-12-13-12------|
--9--------------------------9-----------------------------|
-----------------------------------------------------------|
-----------------------------------------------------------|
-----------------------------------------------------------|

-----------------------------------------------------------|
----12-12-10-8-10-8-7-8-7-----7-8-10-8-7--12-10-8-7--------|
--9-------------------------9-----------------------9------|
-----------------------------------------------------------|
-----------------------------------------------------------|
-----------------------------------------------------------|

y luego
-----------------------------------------------------------|
----------------------8-7----------------------------------|
-----------------9---------9-7-9---------------------------|
-----------------------------------------------------------|
-----------------------------------------------------------|
-----------------------------------------------------------|

Verso 1 X2
-no era el hombre más honesto, pero él
-er un hombre valiente y fiel
-tampoco la piedad se cobijaba en él
--------------------------------------------------
-malvivía, alquilado por tres maravedís
-su espada y vizcaína en
-ajustes de poco lustre y de peor fin
------------------------------------------------------------|
------------------------------------------------------------|
--9x-x--------------------------5--7--9x-x------------------|
--9x-x--9x-x-x-x--7x-x-x-x-x----5--7--9x-x------------------|
--7x-x--9x-x-x-x--7x-x-x-x-x----3--5--9x-x------------------|
---------7x-x-x-x--5x-x-x-x-x-------------------------------|

verso especial 1
-eran tiempos duros y había que buscarse el pan
-reinaban la picaresca, la espada y el "voto a tal"
X2
------------------------------------------------------------|
------------------------------------------------------------|
------------------------------------------------------------|
---------7--------------------------7----10-9---------------|
--7-9-10---9----7------------7-9-10---9---------------------|
-------------10---7-----------------------------------------|

------------------------------------------------------------|
------------------------------------------------------------|
------------------------------------------------------------|
---------7----------------------------7---------------------|
--7-9-10---9----7--------------7-9-10----9-10-7-------------|
-------------10---7-----------------------------------------|

Coro 1
-brilla el acero en su mano
-perla, su cara el sudor
-donde el mar no tiene duaño irá
-irá a buscar
-----------------------------------------------------------|
-----------------------------------------------------------|
--9x-x-x-x-x--------------7x-x-x---------------------------|
--9x-x-x-x-x--9x-x-x-x-x--7x-x-x--7x-x-x--9x-x-------------|
--7x-x-x-x-x--9x-x-x-x-x--5x-x-x--7x-x-x--9x-x-------------|
--------------7x-x-x-x-x----------5x-x-x--7x-x-------------|

*parte de violín
X2

verso 2 (igual que el 1)
-a su espalda, una sombra iba a pie
-lo seguia sin perder ningun detalle
-parecia aprender
------------------------------------------------------------
-su mirada reflejaba calma y paz
-su voz grave y familiar
-relataba leyendas de la antiguedad

verso especial 2 (igual que el uno) X2
-algo misterioso lo envolvía, no dormía jamás
-cuentan que se alimentaba de relato popular

coro 2 (igual que el 1)
-brilla la cruz de Santiago
-en su pecho, con el sol
-su rostro jamás descubrió
-su nombre oculto

*parte de violín
X2

(este tiene un poco de variaciones)
X8
----------------------------------------------------------|
----------------------------------10----------------------|
----------------------9--12-11-12----12-11----------------|
-------------------------------------------12-------------|
----------------------------------------------------------|
----------------------------------------------------------|

*solo de guitarra

-----------------------------------------------------------|
-----------------------------------------------------------|
------9--pm9--pm9----9--9--9---12--------------------------|
------9--pm9--pm9----9--9--9---12--------------------------|
------7--pm7--pm7----7--7--7---10--------------------------|
-----------------------------------------------------------|

verso especial 3 (aqui cambia)
-en el tejado del tiempo
-en el desván de los suaños se ahoga una voz:
-no creas en todo lo que veas, solo hax caso a tu intuición
-----------------------------------------------------------
-y si albergas la duda
-nunca hallarás consuele en tu interior
-lanza bien los dados
-porque el juego del camino ha comenzado
X2
-----------------------------------------------------------|
-----------------------------------------------------------|
--9-9-9--9-9-9-12------------------------------------------|
--9-9-9--9-9-9-12--------------9-9-9--9-9-9-12-------------|
--7-7-7--7-7-7-10--------------9-9-9--9-9-9-12-------------|
-------------------------------7-7-7--7-7-7-10-------------|

------------------------------------------------------------|
------------------------------------------------------------|
-----------------------------------------9-pm9-pm9-9-9-9-12-|
--7-7-7--7-7-7--10x-x-x--10x-x--12x-x-x--9-pm9-pm9-9-9-9-12-|
--7-7-7--7-7-7--10x-x-x--10x-x--12x-x-x--7-pm7-pm7-7-7-7-10-|
--5-5-5--5-5-5--8-x-x-x--8-x-x--10x-x-x---------------------|

verso especial 4 (tambien cambia)
-agudiza tu ingenio
-sirvete de magia
-sirvete de tarot
-lee en el alma del bosque
-y adivina donde la muerte se escondió
X3
------------------------------------------------------------|
------------------------------------------------------------|
--9x-x-x-x-x-----------------------------------------9x-x-x-|
--9x-x-x-x-x--9x-x-x-x-x--7x-x-x-x-10x-x-x--12x-x-x--9x-x-x-|
--7x-x-x-x-x--9x-x-x-x-x--7x-x-x-x-10x-x-x--12x-x-x--7x-x-x-|
--------------7x-x-x-x-x--5x-x-x-x--8x-x-x--10x-x-x---------|
para correguirme porfavor manden sus comentarios a mi
            
Submit corrections

comments powered by Disqus
↑ Back to top | Mago De Oz Tabs for La Cruz De Santiago. Lyrics for acoustic guitar and electric guitar. Tablatures and chords are parodies/interpretations of the original songs. You may use it for private study, scholarship, research or language learning purposes only