>
 >
La Cruz De Santiago 1

La Cruz De Santiago 1 Guitar Tabs

Mago De Oz - La Cruz De Santiago 1 chords, tabs, tablatures, lyrics

Guitar lessons | Add/correct | Request | Top 50 tabs Artists:  A B C D E F G H I J K L M N O P Q R S T U V W X Y Z 0-9

La Cruz De Santiago 1 Guitar Tabs – Mago De Oz

CD, Sheet music, Poster

Do you like La Cruz De Santiago 1? Share with your friends now
TabsTabs v2
Pues aqui les traigo una tablatura Completa de mago de oz
en esta ocasion les presento la Cruz de Santiago, espero que
espero que os guste, si gustan pueden ver mas tablaturas mias
por aqui en distintos instrumentos, solo es de buscarlas...
Le falta el final... pero pueden poner los prieros Riff solo que
con un ritmo diferente y sonara bien...



"La Cruz de Santiago"


Mägo de Oz
Guitarra: Carlitos



E||-------------------------------------------------------|
B||-------------------------------------------------------|
G||------------------------------------------------7s--9--|
D||------------------------------------------------7s--9--|
A||------------------------------------------------5s--7--|
E||-------------------------------------------------------|



-------------------------------|-------------------------------|
-------------------------------|-------------------------------|
----------9----------9------9--|----------9----------9------9--|
----------9----------9------9--|----------9----------9------9--|
--7-7-7-7-7--7-7-7-7-7--7-7-7--|--7-7-7-7-7--7-7-7-7-7--7-7-7--|
-------------------------------|-------------------------------|



-------------------------------|-------------------------------|
-------------------------------|-------------------------------|
----------9----------9------9--|----------9----------9------9--|
----------9----------9------9--|----------9----------9------9--|
--7-7-7-7-7--7-7-7-7-7--7-7-7--|--7-7-7-7-7--7-7-7-7-7--7-7-7--|
-------------------------------|-------------------------------|



-------------------------------|-------------------------------|
-------------------------------|-------------------------------|
----------9----------9------9--|----------9----------9------9--|
----------9----------9------9--|----------9----------9------9--|
--7-7-7-7-7--7-7-7-7-7--7-7-7--|--7-7-7-7-7--7-7-7-7-7--7-7-7--|
-------------------------------|-------------------------------|



---------------------------------|---------------------------------|
---------------------------------|---------------------------------|
--9------------------------------|---------------------------------|
--9------------------------------|--9------------------------------|
--7--7-7-7-7-7-7-7-7-7-7-7-7-7-7-|--9------------------------------|
---------------------------------|--7--7-7-7-7-7-7-7-7-7-7-7-7-7-7-|



---------------------------------|---------------------------------|
---------------------------------|---------------------------------|
---------------------------------|---------------------------------|
--7------------------------------|--10--------------9--------------|
--7------------------------------|--10--------------9--------------|
--5--5-5-5-5-5-5-5-5-5-5-5-5-5-5-|---8--8-8-8-8-8-8-7--7-7-7-7-7-7-|



---------------------------------|---------------------------------|
---------------------------------|---------------------------------|
--9------------------------------|---------------------------------|
--9------------------------------|--9------------------------------|
--7--7-7-7-7-7-7-7-7-7-7-7-7-7-7-|--9------------------------------|
---------------------------------|--7--7-7-7-7-7-7-7-7-7-7-7-7-7-7-|



---------------------------------|---------------------------------|
---------------------------------|---------------------------------|
---------------------------------|---------------------------------|
--7------------------------------|--10--------------9--------------|
--7------------------------------|--10--------------9--------------|
--5--5-5-5-5-5-5-5-5-5-5-5-5-5-5-|---8--8-8-8-8-8-8-7--7-7-7-7-7-7-|



---------------------------------|----|---------------------------------|
---------------------------------|----|---------------------------------|
--9------------------------------|----|--9------------------------------|
--9------------------------------|----|--9------------------------------|
--7--7-7-7-7-7-7-7-7-7-7-7-7-7-7-|----|--7--7-7-7-7-7-7-7-7-7-7-7-7-7-7-|
---------------------------------|----|---------------------------------|



---------------------------------|---------------------------------|
---------------------------------|---------------------------------|
---------------------------------|---------------------------------|
--9------------------------------|--9------------------------------|
--9------------------------------|--9------------------------------|
--7--7-7-7-7-7-7-7-7-7-7-7-7-7-7-|--7--7-7-7-7-7-7-7-7-7-7-7-7-7-7-|



---------------------------------|---------------------------------|
---------------------------------|---------------------------------|
---------------------------------|---------------------------------|
--7------------------------------|--7------------------------------|
--7------------------------------|--7------------------------------|
--5--5-5-5-5-5-5-5-5-5-5-5-5-5-5-|--5--5-5-5-5-5-5-5-5-5-5-5-5-5-5-|



--------------------|---------------------------------|
--------------------|---------------------------------|
--5--------7--------|--9------------------------------|
--5--------7--------|--9------------------------------|
--3--------5--------|--7--7-7-7-7-7-7-7-7-7-7-7-7-7-7-|
--------------------|---------------------------------|



---------------------------------|---------------------------------|
---------------------------------|---------------------------------|
--9------------------------------|---------------------------------|
--9------------------------------|--9------------------------------|
--7--7-7-7-7-7-7-7-7-7-7-7-7-7-7-|--9------------------------------|
---------------------------------|--7--7-7-7-7-7-7-7-7-7-7-7-7-7-7-|



---------------------------------|---------------------------------|
---------------------------------|---------------------------------|
---------------------------------|---------------------------------|
--9------------------------------|--7------------------------------|
--9------------------------------|--7------------------------------|
--7--7-7-7-7-7-7-7-7-7-7-7-7-7-7-|--5--5-5-5-5-5-5-5-5-5-5-5-5-5-5-|



---------------------------------|--------------------|
---------------------------------|--------------------|
---------------------------------|--5--------7--------|
--7------------------------------|--5--------7--------|
--7------------------------------|--3--------5--------|
--5--5-5-5-5-5-5-5-5-5-5-5-5-5-5-|--------------------|



---------------------------------|----------------------------|
---------------------------------|----------------------------|
--9------------------------------|----------------------------|
--9------------------------------|------------7---------------|
--7--7-7-7-7-7-7-7-7-7-7-7-7-7-7-|--7--9--10-----9------7-----|
---------------------------------|------------------10-----7--|



----------------------------|----------------------------|
----------------------------|----------------------------|
----------------------------|----------------------------|
------------7-----10--9~----|------------7---------------|
--7--9--10-----9------------|--7--9--10-----9------7-----|
----------------------------|------------------10-----7--|



---------------------------|----------------------------|
---------------------------|----------------------------|
---------------------------|----------------------------|
------------7--------------|------------7---------------|
--7--9--10-----9~----7~----|--7--9--10-----9------7-----|
---------------------------|------------------10-----7--|



---------------------------|----------------------------|
---------------------------|----------------------------|
---------------------------|----------------------------|
------------7-----10--9----|------------7---------------|
--7--9--10-----9-----------|--7--9--10-----9------7-----|
---------------------------|------------------10-----7--|



---------------------------|--------------------------------|
---------------------------|--------------------------------|
---------------------------|--9--------------9--------------|
------------7--------------|--9--------------9--------------|
--7--9--10-----9~----7~----|--7--7-7-7-7-7-7-7--7-7-7-7-7-7-|
---------------------------|--------------------------------|



----------------------------------|---------------------------------|
----------------------------------|---------------------------------|
----------------------------------|---------------------------------|
----------------------------------|--9------------------------------|
--7-7-7-7-7-7-7-7-7-7-7-7-7-7-7-7-|--9------------------------------|
----------------------------------|--7--7-7-7-7-7-7-7-7-7-7-7-7-7-7-|



----------------------------------|---------------------------------|
----------------------------------|---------------------------------|
----------------------------------|--7------------------------------|
----------------------------------|--7------------------------------|
----------------------------------|--5--5-5-5-5-5-5-5-5-5-5-5-5-5-5-|
--7-7-7-7-7-7-7-7-7-7-7-7-7-7-7-7-|---------------------------------|



---------------------------------|---------------------------------|
---------------------------------|---------------------------------|
---------------------------------|---------------------------------|
--7--------------10--------------|--9------------------------------|
--7--------------10--------------|--9------------------------------|
--5--5-5-5-5-5-5--8--8-8-8-8-8-8-|--7--7-7-7-7-7-7-7-7-7-7-7-7-7-7-|



----------------------------------|---------------------------------|
----------------------------------|---------------------------------|
----------------------------------|--9------------------------------|
----------------------------------|--9------------------------------|
----------------------------------|--7--7-7-7-7-7-7-7-7-7-7-7-7-7-7-|
--7-7-7-7-7-7-7-7-7-7-7-7-7-7-7-7-|---------------------------------|



---------------------------------|---------------------------------|
---------------------------------|---------------------------------|
---------------------------------|---------------------------------|
--9------------------------------|--7------------------------------|
--9------------------------------|--7------------------------------|
--7--7-7-7-7-7-7-7-7-7-7-7-7-7-7-|--5--5-5-5-5-5-5-5-5-5-5-5-5-5-5-|



---------------------------------|---------------------------------|
---------------------------------|---------------------------------|
---------------------------------|--9------------------------------|
--10--------------9--------------|--9------------------------------|
--10--------------9--------------|--7--7-7-7-7-7-7-7-7-7-7-7-7-7-7-|
---8--8-8-8-8-8-8-7--7-7-7-7-7-7-|---------------------------------|



---------------------------------|---------------------------------|
---------------------------------|---------------------------------|
---------------------------------|---------------------------------|
--9------------------------------|--7------------------------------|
--9------------------------------|--7------------------------------|
--7--7-7-7-7-7-7-7-7-7-7-7-7-7-7-|--5--5-5-5-5-5-5-5-5-5-5-5-5-5-5-|



---------------------------------|---------------------------------|
---------------------------------|---------------------------------|
---------------------------------|--9------------------------------|
--10--------------9--------------|--9------------------------------|
--10--------------9--------------|--7--7-7-7-7-7-7-7-7-7-7-7-7-7-7-|
---8--8-8-8-8-8-8-7--7-7-7-7-7-7-|---------------------------------|



---------------------------------|---------------------------------|
---------------------------------|---------------------------------|
--9------------------------------|---------------------------------|
--9------------------------------|--9------------------------------|
--7--7-7-7-7-7-7-7-7-7-7-7-7-7-7-|--9------------------------------|
---------------------------------|--7--7-7-7-7-7-7-7-7-7-7-7-7-7-7-|



---------------------------------|---------------------------------|
---------------------------------|---------------------------------|
---------------------------------|---------------------------------|
--9------------------------------|--7------------------------------|
--9------------------------------|--7------------------------------|
--7--7-7-7-7-7-7-7-7-7-7-7-7-7-7-|--5--5-5-5-5-5-5-5-5-5-5-5-5-5-5-|



---------------------------------|--------------------|
---------------------------------|--------------------|
---------------------------------|--5--------7--------|
--7------------------------------|--5--------7--------|
--7------------------------------|--3--------5--------|
--5--5-5-5-5-5-5-5-5-5-5-5-5-5-5-|--------------------|



---------------------------------|---------------------------------|
---------------------------------|---------------------------------|
--9------------------------------|--9------------------------------|
--9------------------------------|--9------------------------------|
--7--7-7-7-7-7-7-7-7-7-7-7-7-7-7-|--7--7-7-7-7-7-7-7-7-7-7-7-7-7-7-|
---------------------------------|---------------------------------|



---------------------------------|---------------------------------|
---------------------------------|---------------------------------|
---------------------------------|---------------------------------|
--9------------------------------|--9------------------------------|
--9------------------------------|--9------------------------------|
--7--7-7-7-7-7-7-7-7-7-7-7-7-7-7-|--7--7-7-7-7-7-7-7-7-7-7-7-7-7-7-|



---------------------------------|---------------------------------|
---------------------------------|---------------------------------|
---------------------------------|---------------------------------|
--7------------------------------|--7------------------------------|
--7------------------------------|--7------------------------------|
--5--5-5-5-5-5-5-5-5-5-5-5-5-5-5-|--5--5-5-5-5-5-5-5-5-5-5-5-5-5-5-|



--------------------|---------------------------------|
--------------------|---------------------------------|
--5--------7--------|--9------------------------------|
--5--------7--------|--9------------------------------|
--3--------5--------|--7--7-7-7-7-7-7-7-7-7-7-7-7-7-7-|
--------------------|---------------------------------|



----------------------------|----------------------------|
----------------------------|----------------------------|
----------------------------|----------------------------|
------------7---------------|------------7-----10--9~----|
--7--9--10-----9------7-----|--7--9--10-----9------------|
------------------10-----7--|----------------------------|



----------------------------|---------------------------|
----------------------------|---------------------------|
----------------------------|---------------------------|
------------7---------------|------------7--------------|
--7--9--10-----9------7-----|--7--9--10-----9~----7~----|
------------------10-----7--|---------------------------|



----------------------------|---------------------------|
----------------------------|---------------------------|
----------------------------|---------------------------|
------------7---------------|------------7-----10--9----|
--7--9--10-----9------7-----|--7--9--10-----9-----------|
------------------10-----7--|---------------------------|



----------------------------|---------------------------|
----------------------------|---------------------------|
----------------------------|---------------------------|
------------7---------------|------------7--------------|
--7--9--10-----9------7-----|--7--9--10-----9~----7~----|
------------------10-----7--|---------------------------|



--------------------------------|----------------------------------|
--------------------------------|----------------------------------|
--9--------------9--------------|----------------------------------|
--9--------------9--------------|----------------------------------|
--7--7-7-7-7-7-7-7--7-7-7-7-7-7-|--7-7-7-7-7-7-7-7-7-7-7-7-7-7-7-7-|
--------------------------------|----------------------------------|



---------------------------------|----------------------------------|
---------------------------------|----------------------------------|
---------------------------------|----------------------------------|
--9------------------------------|----------------------------------|
--9------------------------------|----------------------------------|
--7--7-7-7-7-7-7-7-7-7-7-7-7-7-7-|--7-7-7-7-7-7-7-7-7-7-7-7-7-7-7-7-|



---------------------------------|---------------------------------|
---------------------------------|---------------------------------|
--7------------------------------|---------------------------------|
--7------------------------------|--7--------------10--------------|
--5--5-5-5-5-5-5-5-5-5-5-5-5-5-5-|--7--------------10--------------|
---------------------------------|--5--5-5-5-5-5-5--8--8-8-8-8-8-8-|



---------------------------------|----------------------------------|
---------------------------------|----------------------------------|
---------------------------------|----------------------------------|
--9------------------------------|----------------------------------|
--9------------------------------|----------------------------------|
--7--7-7-7-7-7-7-7-7-7-7-7-7-7-7-|--7-7-7-7-7-7-7-7-7-7-7-7-7-7-7-7-|



---------------------------------|---------------------------------|
---------------------------------|---------------------------------|
--9------------------------------|---------------------------------|
--9------------------------------|--9------------------------------|
--7--7-7-7-7-7-7-7-7-7-7-7-7-7-7-|--9------------------------------|
---------------------------------|--7--7-7-7-7-7-7-7-7-7-7-7-7-7-7-|



---------------------------------|---------------------------------|
---------------------------------|---------------------------------|
---------------------------------|---------------------------------|
--7------------------------------|--10--------------9--------------|
--7------------------------------|--10--------------9--------------|
--5--5-5-5-5-5-5-5-5-5-5-5-5-5-5-|---8--8-8-8-8-8-8-7--7-7-7-7-7-7-|



---------------------------------|---------------------------------|
---------------------------------|---------------------------------|
--9------------------------------|---------------------------------|
--9------------------------------|--9------------------------------|
--7--7-7-7-7-7-7-7-7-7-7-7-7-7-7-|--9------------------------------|
---------------------------------|--7--7-7-7-7-7-7-7-7-7-7-7-7-7-7-|



---------------------------------|---------------------------------|
---------------------------------|---------------------------------|
---------------------------------|---------------------------------|
--7------------------------------|--10--------------9--------------|
--7------------------------------|--10--------------9--------------|
--5--5-5-5-5-5-5-5-5-5-5-5-5-5-5-|---8--8-8-8-8-8-8-7--7-7-7-7-7-7-|



------------------------------|------------------------------|
------------------------------|------------------------------|
------------------------------|------------------------------|
----------------7-------------|----------------7-------------|
--7--10--9--10-----10--9------|--7--10--9--10-----10--9------|
--------------------------10--|--------------------------10--|



----------------------------|----------------------------|
----------------------------|----------------------------|
----------------------------|----------------------------|
------9--7--9--10--9--7-----|------9--7--9--10--9--7-----|
--10---------------------9--|--10---------------------9--|
----------------------------|----------------------------|



------------------------------|------------------------------|
------------------------------|------------------------------|
------------------------------|------------------------------|
----------------7-------------|----------------7-------------|
--7--10--9--10-----10--9------|--7--10--9--10-----10--9------|
--------------------------10--|--------------------------10--|



----------------------------|----------------------------|
----------------------------|----------------------------|
----------------------------|----------------------------|
------9--7--9--10--9--7-----|------9--7--9--10--9--7-----|
--10---------------------9--|--10---------------------9--|
----------------------------|----------------------------|



------------------------|--------------------------------|
--12-----12-------------|--------------------------------|
--14b----14b------------|--12-11-12~----11----11~--------|
------------------------|------------------14------------|
------------------------|--------------------------------|
------------------------|--------------------------------|



--------------------------------------------------|
--------------------------------------------------|
-----14-16-14-------------------------------------|
--17----------17-16-17-16-14-16-17-16-14----14----|
-----------------------------------------17----17-|
--------------------------------------------------|


                                PM  PM  PM  PM  PM
-----------------------------|---------------------------------|
-----------------------------|---------------------------------|
-----------------------------|-----------------11--12--11------|
--9-10-12------10-9-10~------|--9--10--12--14--------------14--|
-----------------------------|---------------------------------|
-----------------------------|---------------------------------|



------------------------------|
------------------------------|
--11--12--11------/14~--------|
--------------14--------------|
------------------------------|
------------------------------|



--------------------------------------------------|
--------------------------------15----------------|
-----14-16-14----------14-16-17----17-16-14-16-14-|
--17----------17-16-17----------------------------|
--------------------------------------------------|
--------------------------------------------------|



--------------------------------|-------------------------------|
--------------------------------|--/15------15-12---15-13-12----|
--12-11-12~----11----11~--------|-------------------------------|
------------------14------------|-------------------------------|
--------------------------------|-------------------------------|
--------------------------------|-------------------------------|



----------------------------|
--12-13-12-8-10~------------|
----------------------------|
----------------------------|
----------------------------|
----------------------------|


------------------------10-12-10------------|
-----------7-8-10-12-13----------13-12-10-8-|
-------7-9----------------------------------|
--9-10--------------------------------------|
--------------------------------------------|
--------------------------------------------|


------------------------------------|
--10-12-13-15-15b----13-12----------|
---------------------------14~------|
------------------------------------|
------------------------------------|
------------------------------------|


-----------------------------------|
--17b------------------------------|
---------16~----14-12----12--------|
----------------------14----14~----|
-----------------------------------|
-----------------------------------|


------------------------------------|
--------------------12b-------------|
-----------12-14-12-14b-------------|
-----12-14--------------------------|
--14--------------------------------|
------------------------------------|


--15b----15------------------------------|
-------------17-15-17--15----------15-17-|
--------------------------16-14-16-------|
-----------------------------------------|
-----------------------------------------|
-----------------------------------------|


-------------------------------------------|
--15---------------------------------------|
-----16-14-16-14-12----12b--12----12~------|
--------------------14---------14----------|
-------------------------------------------|
-------------------------------------------|


-------------------------------|
-------------------------------|
-------------------------------|
--9------9------9------9S-12---|
--7--7-7-7--7-7-7--7-7-7S-10---|
-------------------------------|


----------------------------|----------------------------|
----------------------------|----------------------------|
----------------------------|----------------------------|
--9--9--9-----9--9--9S-12---|----------------------------|
--7--7--7-----7--7--7S-10---|--9--9--9-----9--9--9S-12---|
----------------------------|--7--7--7-----7--7--7S-10---|



--------------------------|----------------------|
--------------------------|----------------------|
--------------------------|----------------------|
--------------------------|--10--------12--------|
--7--7--7-----7--7--7--9--|--10--------12--------|
--5--5--5-----5--5--5--7--|---8--------10--------|



-------------------------------|----------------------------|
-------------------------------|----------------------------|
--9------9------9--------------|----------------------------|
--9------9------9------9S-12---|--9--9--9-----9--9--9S-12---|
--7--7-7-7--7-7-7--7-7-7S-10---|--7--7--7-----7--7--7S-10---|
-------------------------------|----------------------------|



----------------------------|--------------------------|
----------------------------|--------------------------|
----------------------------|--------------------------|
----------------------------|--------------------------|
--9--9--9-----9--9--9S-12---|--7--7--7-----7--7--7--9--|
--7--7--7-----7--7--7S-10---|--5--5--5-----5--5--5--7--|



Duration Legend
---------------
W - whole
H - half
Q - quarter
E - 8th
S - 16th
T - 32nd
X - 64th
. - note dotted
|-n-|  - n-tuplets


Tablature Legend
----------------
L - tied note
x - dead note
g - grace note
(n) - ghost note
> - accentuded note
NH - natural harmonic
AH - artificial harmonic
TH - tapped harmonic
SH - semi harmonic
PH - pitch harmonic
h - hammer on
p - pull off
b - bend
br - bendRelease
pb - preBend
pbr - preBendRelease
brb - bendReleaseBend
n/ - tremolo bar dip
n - tremolo bar dive
-/n - tremolo bar Release up
/n - tremolo bar inverted dip
/n - tremolo bar return
-n - tremolo bar Release down
S - shift slide
s - legato slide
/ -  slide into from below or out of upwards
 -  slide into from above or out of downwards
~ - vibrato
W - wide vibrato
tr - trill
TP - tremolo picking
T - tapping
S - slap
P - pop
< - fade in
^ - brush up
v - brush down





Comments


Popular Mago De Oz tabs & chords
El Arbol De La Noche Triste Chords
Xanandra Chords
Desde Mi Cielo Tabs
Fiesta Pagana Tabs
La Danza Del Fuego 1 Tabs
La Leyenda De La Llorona Tabs
La Santa Compaa Tabs
La Santa Compana Tabs
Siempre Adios Dulcinea Part Ii Tabs
Hasta Que Tu Muerte Nos Separe Ukulele


Song lyrics



↑ Back to top | Tablatures and chords are parodies/interpretations of the original songs. You may use it for private study, scholarship, research or language learning purposes only
© 2014 AZChords.com Contact us | Privacy policy | DMCA | Add/correct tabs | Request tabs | Top 50 tabs