>
 >
El Santo Grial

El Santo Grial Guitar Tabs

Mago De Oz - El Santo Grial chords, tabs, tablatures, lyrics

Guitar lessons | Add/correct | Request | Top 50 tabs Artists:  A B C D E F G H I J K L M N O P Q R S T U V W X Y Z 0-9

El Santo Grial Guitar Tabs – Mago De Oz

CD, Sheet music, Poster

Do you like El Santo Grial? Share with your friends now
Bass TabsBass Tabs v2Tabs
Simbolos:
---------
  /  -->  Slide 
  h  -->  hammer-on
  p  -->  pull-off
~~~  -->  vibrato


Intro (Guitarras 1 y 2)
-----
|--------------------|
|--------------------|
|--------------------|
|--13----13/12---10--|
|--13----13/12---10--|
|--11----11/10---8---|

|--------------------------------------------------------------------|
|--------------------------------------------------------------------|
|*-------------------------------------------------------------------|
|*-------------------------------------------------------------------|
|---p---------------p---------------p----------------p-------p-------|
|--6-3-3-3-3-3-3-3-6-3-3-3-3-3-3-3-6-3-3-3-3-3-3-3-10-8-6-6-8-6-3-3--|

                                                                  1.
                                                   ----------------|
|------------------------------------------------------------------|
|------------------------------------------------------------------|
|-----------------------------------------------------------------*|
|-----------------------------------------------------------------*|
|---p---------------p---------------p--------------13-12-10-8-5-8--|
|--6-3-3-3-3-3-3-3-6-3-3-3-3-3-3-3-6-3-3-3-3-3-3-3-11-10--8-6-7-6--|

                    2.
   ------------------|
|--------------------|
|--------------------|
|--------------------|
|--------------------|
|----p-------p-------|
|--10-8-6-6-8-6-3-3--|


| 0:16 |
Riff
----
 Guitarra 1 y 2                              2 veces
|---------------------------------------------------|
|---------------------------------------------------|
|*-------------------------------------------------*|
|*-------------------------------------------------*|
|--5-----------5-----------5-----------3------------|
|--3---3-3-3-3-3---3-3-3-3-3---3-3-3-3-1---1-1-1-1--|


 Guitarra 1      3 veces
|-----------------------|--------------------------|
|-----------------------|--------------------------|
|*---------------------*|--------------------------|
|*---------------------*|--------------------------|
|---5-------------------|--3-----------------------|
|---3----3---3---3---3--|--1-----1----1----1----1--|
|                       |                          |
|Guitarra 2             |                          |
|-----------------------|--------------------------|
|-----h---h--p--p--h----|---p--p--h-----p--p--h----|
|*-12---14-15-14-12----*|-15-14-12----15-14-12-----|
|*------------------15-*|----------15----------15--|
|-----------------------|--------------------------|
|-----------------------|--------------------------|


 Guitarra 1      2 veces
|-----------------------|---------------------------|
|-----------------------|---------------------------|
|*---------------------*|---------------------------|
|*---------------------*|---------------------7-----|
|---5-------------------|--13-12-10--8--7--8--5-----|
|---3----3---3---3---3--|--11-10--8--6--5--6--------|
|                       |                           |
|Guitarra 2             |                           |
|-----------------------|---------------------------|
|-----h---h--p--p--h----|---------------------------|
|*-12---14-15-14-12----*|--19-17--------------------|
|*------------------15-*|--------20-19-17-20-19~~~--|
|-----------------------|---------------------------|
|-----------------------|---------------------------|


| 0:30 |
( punteillo rapido )


| 0:32 |
Verso 1 (Guitarras 1 y 2)
-------                            2 veces
|-----------------------------------------|
|-----------------------------------------|
|*---------------------------------------*|
|*-5--------8--------3--------10----10/8-*|
|--5--------8--------3--------10----10/8--|
|--3--------6--------1---------8-----8/6--|

|-------------------------------------------------------------------|
|-------------------------------------------------------------------|
|*------------------------------------------------------------------|
|*------------------------------------------------------------------|
|--5----------------------------------------------------------------|
|--3---3-3-3-3-3-3-3-3-3-3-3-3-3-3-6-6-6-6-6-6-6-6-6-6-6-6-6-6-6-6--|

                                                             2 veces
|-------------------------------------------------------------------|
|-------------------------------------------------------------------|
|*-----------------------------------------------------------------*|
|*-----------------------------------------------------------------*|
|---------------------------------------------------------10/8------|
|--1-1-1-1-1-1-1-1-1-1-1-1-1-1-1-1-8-8-8-8-8-8-8-8-8-8-8-8-8/6------|


| 0:56 |
Estribillo (Guitarras 1 y 2)
----------                                            3 veces
|------------------------------------------------------------|------|
|------------------------------------------------------------|------|
|*----------------------------------------------------------*|------|
|*----------------------------------------------------------*|------|
|---p---------------p---------------p--------------13-12-10--|--12--|
|--6-3-3-3-3-3-3-3-6-3-3-3-3-3-3-3-6-3-3-3-3-3-3-3-11-10--8--|--10--|


| 1:08 |
Riff
----                                              2 veces
    Guitarra 1      3 veces
|--|-----------------------|--------------------------|--|----------|
|--|-----------------------|--------------------------|--|----------|
|--|*---------------------*|--------------------------|--|----------|
|--|*---------------------*|--------------------------|--|----------|
|--|---5-------------------|--3-----------------------|--|----------|
|--|---3----3---3---3---3--|--1-----1----1----1----1--|--|----------|
|*-|                       |                          |-*|          |
|*-|Guitarra 2             |                          |-*|          |
|--|-----------------------|--------------------------|--|----------|
|--|-----h---h--p--p--h----|---p--p--h-----p--p--h----|--|----------|
|--|*-12---14-15-14-12----*|-15-14-12----15-14-12-----|--|--12~~~/--|
|--|*------------------15-*|----------15----------15--|--|----------|
|--|-----------------------|--------------------------|--|----------|
|--|-----------------------|--------------------------|--|----------|


| 1:14 |
( Verso 1 )

| 1:39 |
( Estribillo )


|---------|
|---------|
|---------|
|--11-14--|
|---9-12--|
|---------|


| 1:52 |
Verso 2 (Guitarras 1 y 2)
--------                        2 veces
|--------------------------------------|
|--------------------------------------|
|*------------------------------------*|
|*-5-------13---13---8--------3---3---*|
|--5-------13--------8--------3--------|
|--3-------11--------6--------1--------|

|---------------------------------------------------------------------------------|
|---------------------------------------------------------------------------------|
|---------------------------------------------------------------------------------|
|---------------------------------------------------------------------------------|
|-5-------------------------------------------------------------------------------|
|-3---3-3-3-3-3-3-3-3-3-3-3-3-3-3-11-11-11-11-11-11-11-11-11-11-11-11-11-11-11-11-|
                                                           
|-------------------------------------------------------------------|
|-------------------------------------------------------------------|
|-------------------------------------------------------------------|
|-------------------------------------------------------------------|
|-------------------------------------------------------------------|
|--6-6-6-6-6-6-6-6-6-6-6-6-6-6-6-6-1-1-1-1-1-1-1-1-1-1-1-1-1-1-1-1--|

|---------------------------------------------------------------------------------|
|---------------------------------------------------------------------------------|
|---------------------------------------------------------------------------------|
|---------------------------------------------------------------------------------|
|---------------------------------------------------------------------------------|
|-3-3-3-3-3-3-3-3-3-3-3-3-3-3-3-3-11-11-11-11-11-11-11-11-11-11-11-11-11-11-11-11-|

|-------------------------------------------------------------------|
|-------------------------------------------------------------------|
|-------------------------------------------------------------------|
|-------------------------------------------------------------------|
|-------------------------------------------------------------------|
|--6-6-6-6-6-6-6-6-6-6-6-6-6-6-6-6-1-1-1-1-1-1-1-1-1-1-1-1-1-1-1-1--|


| 2:15 |
Puente (Tapping)
------
Guitarra 2
|-h--p--p--h----|-----|-----|-----|-h--p--p--h----|-----|-----|-----|
|--19-15-12-15--|-----|-----|-----|--20-15-12-15--|-----|-----|-----|
|*--------------|--%--|--%--|--%--|---------------|--%--|--%--|--%--|
|*--------------|-----|-----|-----|---------------|-----|-----|-----|
|---------------|-----|-----|-----|---------------|-----|-----|-----|
|---------------|-----|-----|-----|---------------|-----|-----|-----|

                                                                  1.
                                    --------------------------------|
|-h--p--p--h----|-----|-----|-----|-h--p--p--h----|-----|-----|-----|
|--19-15-12-15--|-----|-----|-----|--19-14-11-14--|-----|-----|-----|
|---------------|--%--|--%--|--%--|---------------|--%--|--%--|--%-*|
|---------------|-----|-----|-----|---------------|-----|-----|----*|
|---------------|-----|-----|-----|---------------|-----|-----|-----|
|---------------|-----|-----|-----|---------------|-----|-----|-----|

                               2.
  -------------------------------|
|-h--p--p-h----|-----|-----|-----|
|--19-12-9-12--|-----|-----|-----|
|--------------|--%--|--%--|--%--|
|--------------|-----|-----|-----|
|--------------|-----|-----|-----|
|--------------|-----|-----|-----|


| 2:27 |
<SOLO>
------
Debajo del solo va esto

|---------------------------------------------------------------------------------|
|---------------------------------------------------------------------------------|
|*--------------------------------------------------------------------------------|
|*--------------------------------------------------------------------------------|
|---------------------------------------------------------------------------------|
|-3-3-3-3-3-3-3-3-3-3-3-3-3-3-3-3-11-11-11-11-11-11-11-11-11-11-11-11-11-11-11-11-|

                                                               1,2,3.
                                   ---------------------------------|
|-------------------------------------------------------------------|
|-------------------------------------------------------------------|
|*-----------------------------------------------------------------*|
|*-----------------------------------------------------------------*|
|----------------------------------------------------3---3---3------|
|--6-6-6-6-6-6-6-6-6-6-6-6-6-6-6-6-1-1-1-1-1-1-1-1---1---1---1------|

                                   4.
   ---------------------------------|
|-----------------------------------|
|-----------------------------------|
|-----------------------------------|
|-----------------------------------|
|-----------------------------------|
|--1-1-1-1-1-1-1-1-1-1-1-1-1-1-1-1--|

| 2:52 |
|----------------------------------------------------|
|----------------------------------------------------|
|*---------------------------------------------------|
|*---------------------------------------------------|
|--10----10----10----10-----6-----6-----6-----6------|
|---8-8-8-8-8-8-8-8-8-8-8-8-4-4-4-4-4-4-4-4-4-4-4-4--|

                                                                  1.
                                          -------------------------|
|------------------------------------------------------------------|
|------------------------------------------------------------------|
|-----------------------------------------------------------------*|
|-----------------------------------------------------------------*|
|--13-------13-------13-------13----------8-----8-------8--7--8----|
|--11-11-11-11-11-11-11-11-11-11-11-11-11-6-6-6-6-6-6---6--5--6----|


| 3:03 |
Guitarras 1 y 2
|------------------------------------------------------------------|
|------------------------------------15----------------------------|
|--12---12-12-12---14--15----------------17--15--14----------------|
|--------------------------13---13---------------------------------|
|------------------------------------------------------------------|
|------------------------------------------------------------------|

                                              1.
                         ----------------------|
|------------------------------------------------------------------|
|-------h----------------------------------------------------------|
|--14-14-15-14-----------------------------------------------------|
|---------------15--17---15-15-17-19-15-15-17-19-------------------|
|------------------------------------------------------------------|
|------------------------------------------------------------------|

                              2.
   ----------------------------|
|------------------------------|------|
|------------------------------|------|
|------------------------------|------|
|--19-19-17-15-17-17-15-14-----|--12--|
|--------------------------17--|--12--|
|------------------------------|--10--|


| 3:18 |
(**) (Guitarras 1 y 2)
|---------------------------------------------------------------------------|
|---------------------------------------------------------------------------|
|*--------------------------------------------------------------------------|
|*--------------------------------------------------------------------------|
|---------------------------------------------------------------------------|
|--3-3-3-3-3-3-3-3-10-10-10-10-10-10-10-10-5-5-5-5-5-5-5-5-6-6-6-6-6-6-6-6--|

                                                                               1.
   -----------------------------------------------------------------------------|
|-------------------------------------------------------------------------------|
|-------------------------------------------------------------------------------|
|------------------------------------------------------------------------------*|
|------------------------------------------------------------------------------*|
|-------------------------------------------------------------------------------|
|--11-11-11-11-10-10-10-10-8-8-8-8-6-6-6-6-5-5-5-5-10-10-10-10-3-3-3-3-3-3-3-3--|

                                                                               2.
   -----------------------------------------------------------------------------|
|-------------------------------------------------------------------------------|
|-------------------------------------------------------------------------------|
|-------------------------------------------------------------------------------|
|-------------------------------------------------------------------------------|
|--13----------12---------10-------8-------7-------12----------5----------------|
|--11----------10----------8-------6-------5-------10----------3----------------|

 Guitarra 1
|-------------------------------------------------------------------------|
|-------------------------------------------------------------------------|
|-------------------------------------------------------------------------|
|-------------------------------------------------------------------------|
|--12----------12----------13-------------12------10----------------------|
|--10----------10----------11-------------10-------8-------8-8-8-8-8-8-8--|
|                                                                         |
|Guitarra 2                                                               |
|-------------------------------------------------------------------------|
|-------------------------------------------------------------------------|
|-------------------------------------------------------------------------|
|-------------------------------------------------------------------------|
|-------------------------------------------------------------------------|
|--10-10-10-10-10-10-10-10-11-11-11-11-11-10-10-10-8-8-8-8-8-8-8-8-8-8-8--|

 Guitarra 1
|--------------------------------------------------------------|
|--------------------------------------------------------------|
|--------------------------------------------------------------|
|--------------------------------------------------------------|
|-10------10-------12------------10-----8----------------------|
|--8-------8-------10-------------8-----6-------6-6-6-6-6-6-6--|
|                                                              |
|Guitarra 2                                                    |
|--------------------------------------------------------------|
|--------------------------------------------------------------|
|--------------------------------------------------------------|
|--------------------------------------------------------------|
|--------------------------------------------------------------|
|--8-8-8-8-8-8-8-8-10-10-10-10-10-8-8-8-6-6-6-6-6-6-6-6-6-6-6--|


( Solo Violin )


|-------------------------------------------------|
|-------------------------------------------------|
|-------------------------------------------------|
|--12----7---9---11---12-12----h--h--p--p-h--p----|
|--10----5---7----9---10-10---9-10-12-10-9-12-10--|
|-------------------------------------------------|


| 3:46 |
Volver a empezar desde la se¤al (**) hasta aqui, solo que esta vez en
el lugar del solo de violin tocar esto

 Guitarra 1
|---------------------------------------------------------|
|---------------------------------------------------------|
|---------------------------------------------------------|
|---------------------------------------------------------|
|--7-------7------10---------7-----5----------------------|
|--5-------5-------8---------5-----3-------3-3-3-3-3-3-3--|
|                                                         |
|Guitarra 2                                               |
|---------------------------------------------------------|
|---------------------------------------------------------|
|---------------------------------------------------------|
|---------------------------------------------------------|
|---------------------------------------------------------|
|--5-5-5-5-5-5-5-5-8-8-8-8-8-5-5-5-3-3-3-3-3-3-3-3-3-3-3--|


| 4:09 |
( otro solo violin )


( solo bajo )


|------|
|------|
|------|
|--12--|
|--12--|
|--10--|


| 4:22 |
( Estribillo )


|---------|
|---------|
|---------|
|--11-14--|
|---9-12--|
|---------|


| 4:35 |
( verso 2 )


|-----|
|-----|
|-----|
|-----|
|-----|
|--1--|


| 5:01 |
Guitarras 1 y 2                                       2 veces         Fin
|------------------------------------------------------------|-----------|
|------------------------------------------------------------|-----------|
|*----------------------------------------------------------*|-----------|
|*----------------------------------------------------------*|-----------|
|---p---------------p---------------p--------------13-12-10--|-----------|
|--6-3-3-3-3-3-3-3-6-3-3-3-3-3-3-3-6-3-3-3-3-3-3-3-11-10--8--|--3-3-1-3--|





Comments


Popular Mago De Oz tabs & chords
La Cantata Del Diablo Bass Tabs
Judas Chords
Maritornes Chords
Sin Ti Seria Silencio Chords
El Cantar De La Luna Oscura Tabs
El Pacto Tabs
La Cantata Del Diablo Tabs
La Conquista Tabs
Mago De Oz Tabs
Duerme Ukulele


Song lyrics



↑ Back to top | Tablatures and chords are parodies/interpretations of the original songs. You may use it for private study, scholarship, research or language learning purposes only
© 2014 AZChords.com Contact us | Privacy policy | DMCA | Add/correct tabs | Request tabs | Top 50 tabs