» » »

Night Boat To Cairo Bass tabs (ver.2)

Artists:  A B C D E F G H I J K L M N O P Q R S T U V W X Y Z # 

Night Boat To Cairo Bass tabs (ver.2)

Madness
Rating:
0/5 (0 votes)

Hard to play? Try these video lessons and learn fast.
                Intro
G|--------0-----------0----|
D|-----2-----------2-------|
A|--3-------4-1-3-------4--|
E|-------------------------|

Verse Part 1
G|--------0------------------|
D|-----2----2-----------3----|
A|--3----------1----4-4---4--|
E|---------------------------|

Verse part 2
G|---------------------------|
D|---------------0-----------|
A|------3------2---2---------|
E|--1-4---4--4---------------|

Run Down
G|---------------------------|
D|-1111111-------------------|
A|---------4-3-3-3-3---------|
E|---------------------------|

Verse Part 1
G|--------0------------------|
D|-----2----2-----------3----|
A|--3----------1----4-4---4--|
E|---------------------------|

Verse part 2
G|---------------------------|
D|---------------0-----------|
A|------3------2---2---------|
E|--1-4---4--4---------------|

Run Down
G|---------------------------|
D|-1111111-------------------|
A|---------4-3-3-3-3---------|
E|---------------------------|

Run Up
G|-------------|
D|-------------|
A|--3-4-6-7-8--|
E|-------------|

Saxaphone Solo
G|----2-5-2-----3----|
D|--3-------1-4---4--|
A|-------------------|
E|-------------------|
            
Hard to play? Try these video lessons and learn fast. | Correct




comments powered by Disqus
↑ Back to top | Tablatures and chords are parodies/interpretations of the original songs. You may use it for private study, scholarship, research or language learning purposes only