» » »

Madness, Night Boat To Cairo Bass tabs (ver.1)

Artists:  A B C D E F G H I J K L M N O P Q R S T U V W X Y Z # 

Night Boat To Cairo Bass tabs (ver.1)

Madness Tabs
 Rating:
4/5 (5 votes)
Night Boat To Cairo lessons Tabs too difficult? Try these video lessons and learn fast
1
                Band: Madness

Intro: Play twice
------------|---------|
---2-5------|---2-5---|
-3-----4--1-|-3-----4-|
------------|---------|

Riff 1: Play 8 times
----------|---------|
---2-5-2--|-----3---|
-3--------|-1-4---4-|
----------|---------|

Riff 2:
-----5---|-----8---|-----5---|------------|-----5---|-----8---|-----5---|
-3-6---6-|-6-9---9-|-3-6---6-|---3-6--3-6-|-3-6---6-|-6-9---9-|-3-6---6-|
---------|---------|---------|-4----------|---------|---------|---------|
---------|---------|---------|------------|---------|---------|---------|

-------------|-----------|-------------|-----|
---5-8---5-8-|---5-8-----|---2-5---2-5-|-----|
-6-----6-----|-6-----6-5-|-3-----3-----|-3---|
-------------|-----------|-------------|-----|

Repeat Riff 1 eight times!
Repeat Riff 2: then go straight into:
-------|----------|---------|
-------|---7-10-7-|-----8---|
-4-5-6-|-8--------|-6-9---9-|=Repeat these last 2 bars!
-------|----------|---------|

------------|----------|------------|----|
---7-10-----|---7-10---|---7-10-----|----|
-8------9-6-|-8------9-|-8------9-6-|-8--|
------------|----------|------------|----|

Finale:
----------|---------|
---7-10-7-|-----8---|
-8--------|-6-9---9-|
----------|---------|
            
Submit corrections

comments powered by Disqus
↑ Back to top | Madness Bass for Night Boat To Cairo. Lyrics for acoustic guitar and electric guitar. 1 Tablatures and chords are parodies/interpretations of the original songs. You may use it for private study, scholarship, research or language learning purposes only