» » »

Baggy Trousers Bass tabs (ver.1)

Artists:  A B C D E F G H I J K L M N O P Q R S T U V W X Y Z # 

Baggy Trousers Bass tabs (ver.1)

Madness
Rating:
0/5 (0 votes)

Hard to play? Try these video lessons and learn fast.
                Hey this is my first madness tab but i am certain this is correct! The only part 
that may seem wrong to you is the off beat bass riff during the harmonica solo but 
i assure you, if you listen carefully, it is right

Intro
G|---------------------------|
D|---------------------------|
A|-2r-1------333333-3-2r-1---|
E|------4--1-------1-------4-|

Verse X2
G|---------------------------------------|
D|------------------------333333-3-------|
A|---333333-3---666666-6-1------1--2r-1--|
E|-1-------1--4-------4----------------4-|

Chorus
G|-----2323--------------2323-------|
D|--------------2323----------------|
A|-1-1---------------1-1------33323-|
E|----------1-1---------------------|

G|-----2323--------------2323------------|
D|--------------2323---------------------|
A|-1-1---------------1-1------33332r-1---|
E|----------1-1------------------------4-|

Verse X2
G|--------------------------------------|
D|-----------------------333333-3-------|
A|---333333-3--666666-6-1------1--2r-1--|
E|-1-------1--4------4----------------4-|

Chorus
G|-----2323--------------2323-------|
D|--------------2323----------------|
A|-1-1---------------1-1------33323-|
E|----------1-1---------------------|

G|-----2323--------------2323--------|
D|--------------2323-----------------|   
A|-1-1---------------1-1------333234-|
E|----------1-1----------------------|

During The Harmonica Solo
G|------------------------------------------------------------------------|
D|------------------------------------------------------------------------|
A|-5-5-7-7-5-5-2020-5-5-7-7-5-5-2020-5-5-7-7-5-5-2020-5-5-7-7-5-5-2-1-0---|
E|----------------------------------------------------------------------4-|
The 5s and the 7s here are off beat

Verse X2
G|----------------------------------------|
D|------------------------333333-3--------|
A|---333333-3---666666-6-1------1--2r-1---|
E|-1-------1--4-------4-----------------4-|

Chorus
G|-----2323--------------2323-------|
D|--------------2323----------------|
A|-1-1---------------1-1------33323-|
E|----------1-1---------------------|

G|-----2323--------------2323--------|
D|--------------2323-----------------|   
A|-1-1---------------1-1------333234-|
E|----------1-1----------------------|

During The Harmonica Solo
G|------------------------------------------------------------------------|
D|------------------------------------------------------------------------|
A|-5-5-7-7-5-5-2020-5-5-7-7-5-5-2020-5-5-7-7-5-5-2020-5-5-7-7-5-5-2-1-0---|
E|----------------------------------------------------------------------4-|
The 5s and the 7s here are off beat

Outro
G|------------------------3-3-3-3--------|
D|--3-3-3-3-6-6-6-6----------------------|
A|-----------------------1-1-1-1--2-1-0--|
E|-1-1-1-1-4-4-4-4---------------------4-|
Repeat until end

TRUKLES
XXXXXXX
            
Hard to play? Try these video lessons and learn fast. | Correct




comments powered by Disqus
↑ Back to top | Tablatures and chords are parodies/interpretations of the original songs. You may use it for private study, scholarship, research or language learning purposes only