» » »

Wet Dog Bass tabs (ver.1)

Artists:  A B C D E F G H I J K L M N O P Q R S T U V W X Y Z # 

Wet Dog Bass tabs (ver.1)

Mad Caddies
Rating:
0/5 (0 votes)

Hard to play? Try these video lessons and learn fast.
                Intro
G|---------------------------------------| 
D|---------------------------------------| Riff 2 
A|-----2-6-444-6-77-6-4-5-4-2------------| 
E|--44------------------------2----------| 

G|---------------------------------------| 
D|---------------------------------------| Riff 2 
A|-----2-6-444-6-------------------------| 
E|--44-----------222-4-------------------| 

Riff 1 x 1

G|---------------------------------------| 
D|---------------------------------------| Riff 3 
A|-----2-6-444-6-----4-2-1-2-1-----------| 
E|--44-----------222-----------2---------|

Riff 1 x1
Riff 3 x1

Verse
G|---------------------------------------| 
D|---------------------------------------| 
A|-----2-6-444-6-77-6-4-5-4-2------------| 
E|--44------------------------2----------| 

G|---------------------------------------| 
D|---------------------------------------|  
A|-----2-6-444-6-----4-2-1-2-1-----------| 
E|--44-----------222-----------2---------|
      Then do both of them again
Break 

G|------------------------| 
D|------------------------|Played softly  
A|------------------------| 
E|--4--44-44-44-44-44-----|

Chorus

G|---------------------------------------------------| 
D|---------------------------------------------------| 
A|--------------------------4422-4422-6666666666-----| 
E|-0000-4444-0000-4444-0000--------------------------| 
Riff 1 x1
Riff 3 x1
Riff 1 x1
Riff 3 x1
After the last Rift 3 play

G|--------| 
D|--------|  
A|---6-2--| 
E|-4------|

Verse
Chorus

End 1 
G|-----------------------------------------------| 
D|-----------------------------------------------| listen to song to get strumming
A|-----------------------------------------------| 
E|-77777777 88888888 99999999 1010101010101010---| 
 
G|-----------------------------------------------------------------------| 
D|-----------------------------------------------------------------------| 
A|-----------------------------------------------------------------------| 
E|-77777777 88888888 99999999 1010101010101010-1111111111111111 12131415-|

End 2
G|---------------------------------------| 
D|---------------------------------------| Play until end 
A|-----3-7-555-7-88-7-5-6-5-3------------| 
E|--55------------------------3----------|
            
Hard to play? Try these video lessons and learn fast. | Correct




comments powered by Disqus
↑ Back to top | Tablatures and chords are parodies/interpretations of the original songs. You may use it for private study, scholarship, research or language learning purposes only