» » »

Wet Dog Tabs (ver.1)

Artists:  A B C D E F G H I J K L M N O P Q R S T U V W X Y Z # 

Wet Dog Tabs (ver.1)

Mad Caddies
Rating:
5/5 (1 vote)

Tabs too difficult? Try these video lessons and learn fast.
                Pretty fast chord changes here, but if u get the intro and chorus the rest is
easy. Check this out:

Intro 1st part (first only bass then guitar enters with):
e|------------|
B|------------|
G|------------|
D|----9-9-8-6-|
A|----9-9-8-6-|
E|----7-7-6-4-|

Intro/Chorus:
e|------------------------------------------------------------------|
B|------------------------------------------------------------------|
G|--------8-6-6-6/8-9-9-8-6-7-6-4---------8-6-6-6-6-----------------|
D|--6-6/9-8-6-6-6/8-9-9-8-6-7-6-4-4-6-6/9-8-6-6-6-6-4-4-4-4-9-9-8-6-|
A|--6-6/9-6-4-4-4/6-7-7-6-4-5-4-2-4-6-6/9-6-4-4-4-4-4-4-4-4-9-9-8-6-|
E|--4-4/7-------------------------2-4-4/7-----------2-2-2-2-7-7-6-4-|

Chorus End:
e|------|
B|------|
G|------|
D|-6-9-6|
A|-6-9-6|
E|-4-7-4|



1st Verse (beginning part):

e|----------------------4~~~----19------|
B|----------------------4~~~------18-19-|
G|----------------------4~~~------------|
D|-6~~~~~~~-------------4~~~------------|
A|-6~~~~~~~---6~~~~-----6~~~------------|
E|-4~~~~~~~---4~~~~-----4~~~------------| .....then


Verse:

e|------------------------------|
B|------------------------------|
G|-------------6-----------4p2--|
D|------6------6-----4-----4p2--|
A|------6--4-4-4-----4-2-2-2----|
E|--4-4-4--------2-2-2----------|
PM  ...    ...   ...   ...         palm muting goes on like that     

Verse end & Bridge:

e|----------------------------|
B|----------------------------|
G|-------------6--------9--11-|
D|------6------6-----4--9--11-|
A|------6--4-4-4-----4--7--9--|
E|--4-4-4--------2-2-2--------|

e|--------------------------------------------------|
B|--------------------------------------------------|
G|--------------------------------------------------|
D|-2--2--4--4--6--6--6--6---2--2--4--4--6--6--6--6--|
A|-2--2--4--4--6--6--6--6---2--2--4--4--6--6--6--6--|
E|-0--0--2--2--4--4--4--4---0--0--2--2--4--4--4--4--|

e|----------------------------------------|
B|----------------------------------------|
G|---------------------11~~---------------|
D|-2--2--4--4-2~~-4~~--11~~--9\--BREAK----|
A|-2--2--4--4-2~~-4~~--9~~~--9\--BREAK----|
E|-0--0--2--2-0~~-2~~--------7\--BREAK----|


Outro:

e|---------------------------------------------------------------|
B|---------------------------------------------------------------|
G|----------5b-----5b-----6b-----6b-----7b----7b-----------------|
D|-11\-6-6-----6-6----7-7----7-7----8-8----8-8---2-2-2-2-2-2-2-2-|
A|-----6-6-----6-6----7-7----7-7----8-8----8-8---2-2-2-2-2-2-2-2-|
E|-----4-4-----4-4----5-5----5-5----6-6----6-6---0-0-0-0-0-0-0-0-|
PM                                               ...............
e|---------------------------------------------------------------|
B|---------------------------------------------------------------|
G|----------5b-----5b-----6b-----6b-----7b----7b-----------------|
D|-----6-6-----6-6----7-7----7-7----8-8----8-8---6--7--8-9-10-11-|
A|-----6-6-----6-6----7-7----7-7----8-8----8-8---6--7--8-9-10-11-|
E|-----4-4-----4-4----5-5----5-5----6-6----6-6---4--5--6-7-8--9--|

Finish:


Song Structure:

Intro 1st part

Intro/Chorus (2x)

1st Verse (beginning part)

Verse  (3x)

verse end & Bridge

Intro/Chorus (2x) (then chorus end)

Verse (3x)

Verse end & Bridge

Chorus (2x)

Outro (BREAK)

Chorus (2x)

Intro 1st part (x4)

and that's it comment pls for corrections :)
            
Tabs too difficult? Try these video lessons and learn fast.


comments powered by Disqus
↑ Back to top | Tablatures and chords are parodies/interpretations of the original songs. You may use it for private study, scholarship, research or language learning purposes only