» » »

Mad Caddies, Drinking For Tabs (ver.1)

Artists:  A B C D E F G H I J K L M N O P Q R S T U V W X Y Z # 

Drinking For Tabs (ver.1)

Mad Caddies Tabs
 Rating:
4/5 (4 votes)
Drinking For lessons Tabs too difficult? Try these video lessons and learn fast
1
                
------------------------------------------------------
Drinking for 11 – Mad Caddies
------------------------------------------------------

Acoustic Intro 
Play each note 8x
E|-1--5--6--1--|
B|-1--5--6--1--|
G|-2--6--7--2--|(x2)
D|-3--7--8--3--|
A|-3--7--8--3--|
E|-1--5--6--1--|
Verse 
*=play 8x palm muted
E|-*--*--*--*--|
B|-1--5--6--6--|
G|-2--6--7--7--|(x3)
D|-3--7--8--8--|
A|-------------|
E|-------------|
Verse end
E|-*--*--*--6-6-6-6-5-1-3--|
B|-1--5--6--6-6-6-6-5-1-5--|
G|-2--6--7--7-7-7-7-6-2-5--|
D|-3--7--8--8-8-8-8-7-3-5--|
A|----------8-8-8-8-7-3-3--|
E|----------6-6-6-6-5-1----|
Chorus
E|-*--*--*----|-*--*--5--6--3--|
B|-1--5--7--*-|-1--5--7--6--3--|
G|-2--5--7--7-|-2--5--7--7--4--|
D|-3--5--7--8-|-3--5--7--8--5--|
A|----------8-|-------5--8--5--|
E|----x3------|----------6--3--|
Repeat everything above
Play intro x3 (last time acoustic)
End on F
            
Submit corrections

comments powered by Disqus
↑ Back to top | Mad Caddies Tabs for Drinking For. Lyrics for acoustic guitar and electric guitar. 1 Tablatures and chords are parodies/interpretations of the original songs. You may use it for private study, scholarship, research or language learning purposes only