» » »

Villains Bass tabs (ver.2)

Artists:  A B C D E F G H I J K L M N O P Q R S T U V W X Y Z # 

Villains Bass tabs (ver.2)

Mad Caddies
Rating:
0/5 (0 votes)

Hard to play? Try these video lessons and learn fast.
                Mad Caddies
Villains

INTRO
G-----------------------|
D----------^--^---------|
A--1~~~~~--5--1--0~~~~~-|
E-----------------------|

VERSE				     ending(0:24)
G----------------------------------|--------|
D----------------------------------|--------|
A--5--5--5--5--8--8-5--5--------5--|-----5--|
E----5--5--5-----8----5--5--6-5----|--6-5---|

STUPID PUNK PART WHICH DOES NOT BELONG IN THIS SONG! (0:26)  (1:15)
G-----------------------------------------|
D-----------------------------------------|
A--555555555555-8888-55555555-------5555--|
E-----------------------------66-55-------|

CONT'D (0:34) (1:23)
G--------------------------------------------------------------|
D----lots-of-palm-muting-here----------------------------------|
A--55-5-55-5-55-5-55-5-55-5-55-5-88-8-88-8-33-3-33-3-33-3-33-3-|
E--------------------------------------------------------------|

(0:39) (1:29)
G-------------------------------|
D-------------------------------|
A--0-0-000-5555--3-3-000-5555---|
E-------------------------------|

(0:43) (1:33)
G------------------------------------------------|
D----------[palm mute]---------------------------|
A-----------55555555--------------0000-11111-3-4-|
E-3333-5555------------3333-33333----------------|

THEN VERSE, STUPID PUNK PART AGAIN



ENDING (1:49)
G-----------------------------------------------------------------|
D-----------------------------------------------------------------|
A--55555555-33333333-11111111-33333333-55555555-33333333-11111111-|
E-----------------------------------------------------------------|

then drums go double time
G--------------------------------------------|
D--------------------------------------------|
A--55555555-33333333-11111111---11-000-5>>>--|
E--------------------------------------------|
            
Hard to play? Try these video lessons and learn fast. | Correct




comments powered by Disqus
↑ Back to top | Tablatures and chords are parodies/interpretations of the original songs. You may use it for private study, scholarship, research or language learning purposes only