» » »

Villains Bass tabs (ver.1)

Artists:  A B C D E F G H I J K L M N O P Q R S T U V W X Y Z # 

Villains Bass tabs (ver.1)

Mad Caddies
Rating:
0/5 (0 votes)

Hard to play? Try these video lessons and learn fast.
                Band:Mad Caddies

An amazing song from a great band.

Intro
G|---------------------|
D|---------------------|
A|---------------------|
E|----6~---8-6-5~---5--|

Pre-Verse
G|------------------------------------------------|
D|-------3-------------------3--------------------|
A|-5-5-5--3-5-5------5-5-5-5--3-5-5------5----5---|
E|--5-5-5----5-5--6-5---5-5-5----5-5--6-5--6-5----|

Verse
G|-----------------------------------|
D|-------------3333------------------|
A|-555555555555----55555555---5-553--|
E|-------------------------6-5-------|

G|--------------------------------------------|
D|-------------3333---------------------------|
A|-555555555555----33333333-00-5555-3-0-5555--|
E|--------------------------------------------|

Verse pt2
G|----------------------------------|
D|----------------------------------|
A|-----------------55555555---------|
E|-3333333355555555--------33333333-|

G|----------------------------------|
D|----------------------------------|
A|-----------------11111111--3-4----|
E|-3333333355555555-----------------|

Pre-Verse
G|----------------------------------------------|
D|-------3-------------------3------------------|
A|-5-5-5--3-5-5------5-5-5-5--3-5-5------5---5--|
E|--5-5-5----5-5--6-5---5-5-5----5-5--6-5-6-5---|

Verse
G|-------------------------------------|
D|-------------3333--------------------|
A|-555555555555----55555555-----5-553--|
E|--------------------------6-5--------|

G|--------------------------------------------|
D|-------------3333---------------------------|
A|-555555555555----33333333-00-5555-3-0-5555--|
E|--------------------------------------------|

Verse pt2
G|-----------------------------------|
D|-----------------------------------|
A|-----------------55555555----------|
E|-3333333355555555--------33333333--|

G|--------------------------------|
D|--------------------------------|
A|-----------------11111111--3~~--|
E|-3333333355555555---------------|

Ending
G|-------------------------------------|
D|-------------------------------------|
A|-55555555-33333333-11111111-33333333-|
E|-------------------------------------|

G|-----------------------------|
D|-----------------------------|
A|-55555555-33333333-11111111--|
E|-----------------------------|

G|-----------------------------|
D|-----------------------------|
A|-55555555-33333333-11111111--|
E|-----------------------------|

End
G|-------|
D|-------|
A|-1-3-5-|
E|-------|

well there we go i'm pretty sure it's correct 
Enjoy...
            
Hard to play? Try these video lessons and learn fast. | Correct




comments powered by Disqus
↑ Back to top | Tablatures and chords are parodies/interpretations of the original songs. You may use it for private study, scholarship, research or language learning purposes only