>
 >
Rockupation 1

Rockupation 1 Guitar Tabs

Mad Caddies - Rockupation 1 chords, tabs, tablatures, lyrics

Guitar lessons | Add/correct | Request | Top 50 tabs Artists:  A B C D E F G H I J K L M N O P Q R S T U V W X Y Z 0-9

Rockupation 1 Guitar Tabs – Mad Caddies

CD, Sheet music, Poster

Do you like Rockupation 1? Share with your friends now
Bass TabsTabsTabs v2
the other tabs here are horrible, so i decided to tab it out myself
this one should be at least 98% correct


standard tuning

drum intro

guitar 1 (x4)
e--------------------------|
B--------------------------|
G--------------------------|
D-4-6------6-7-6-4---4-6---|
A-----7--7---------7-----7-|
E--------------------------|

guitar 2
e-7~----7~----7-|
B-9~----9~----9-|
G-9~----9~--8-9-|
D-9~--9-9~--8-9-|
A-7~--9-7~--6-7-|
E-----7---------|

Main Riff:

guitar 1 (x2) second time there's an overdubbed third guitar playing the same stuff
e---------------------------|-------------------|
B-7-9------9-10-9-7---7-9---|-7-9----9-10-9-7---|
G-----9--9----------9-----9-|-----9-----------9-|
D---------------------------|-------------------|
A---------------------------|-------------------|
E---------------------------|-------------------|

guitar 2 (x2) I didn't tab out the rhythm, but it's easy
  E  A  B  E
e------------|
B----2--4----|
G-1--2--4--1-|
D-2--2--4--2-|
A-2--0--2--2-|
E-0--------0-|

Verse 1:

guitar 2 (x4)
  E          A          B     A    E
e-7-7-7-7-7--5-5-5-5-5--7-7-7-5-5--7-7-7-7-7-|
B-9-9-9-9-9--5-5-5-5-5--7-7-7-5-5--9-9-9-9-9-|
G-9-9-9-9-9--6-6-6-6-6--8-8-8-6-6--9-9-9-9-9-|
D-9-9-9-9-9--7-7-7-7-7--9-9-9-7-7--9-9-9-9-9-|
A--------------------------------------------|
E--------------------------------------------|

guitar 1
  1st time   2nd time         3rd time   4th time
e---------------------------------------------------|
B-------------------------------------9999~--999999-|
G----------------13-11-13-11-13-9-----9999~--999999-|
D----------------xx-xx-xx-xx-xx-x-----9999~--999999-|
A----------------11--9-11--9-11-7-----7777~--777777-|
E---------------------------------------------------|

Pre-Chorus:
(no rhythm tabbed out)
guitar 2 plays this twice (second time the B is muted)
guitar 1 plays this once

  A  B
e------|
B------|
G-6--8-|
D-7--9-|
A-7--9-|
E-5--7-|

guitar 1 second time with brass
e--------------|
B--------------|
G-9-7----------|
D-----9-8-7----|
A-----------10-|
E--------------|

Chorus:

both guitars (x2)
chords:

E A B E


Main Riff

Verse 2:

guitar 2 = verse 1
guitar 1 just plays some E chords when guitar 2 plays them too


Pre-chorus


Chorus


Solo:

guitar 2 plays Chorus

guitar 1 plays something in the scale of E,
I'm too lazy right now to figure it out, mabe I will add it later

"drum chorus"
then
"drum chorus" + E chord

Outro:
Main Riff is played twice, but cuts out during the second time


Alright that's it, this song is perfect for every summer day and as the sun is shining today
I don't wanna spend my time on figuring out the solo...

have fun





Comments


Popular Mad Caddies tabs & chords
Booze Cruise Bass Tabs
Distress 1 Bass Tabs
Drinking For 11 1 Bass Tabs
The Joust 1 Bass Tabs
Distress Chords
Monkeys Chords
Macho Nachos 1 Tabs
No Hope Tabs
Silence Tabs
Today Ukulele


Song lyrics



↑ Back to top | Tablatures and chords are parodies/interpretations of the original songs. You may use it for private study, scholarship, research or language learning purposes only
© 2014 AZChords.com Contact us | Privacy policy | DMCA | Add/correct tabs | Request tabs | Top 50 tabs