» » »

Mad Caddies, Rockupation Bass tabs (ver.1)

Artists:  A B C D E F G H I J K L M N O P Q R S T U V W X Y Z # 

Rockupation Bass tabs (ver.1)

Mad Caddies Tabs
 Rating:
4/5 (4 votes)
Rockupation lessons Tabs too difficult? Try these video lessons and learn fast
                Mad Caddies

"I'm ready to rock 'n' roll. Here we go!"

VERSE & CHORUS
G-------------|--------------|------------|----------|
D-------------|--------------|------------|----------|
A-----------2-|-00--0-----0--|-22-2-0-----|----------|
E-00--0-2-4---|-------2-4----|--------4-2-|-00--5555-|


PRE-CHORUS
G--------------------------------------|
D--------------------------------------|
A-5-55-55-55-5-------------------------|
E---------------7-7-777-7-7-7----------|

G--------------------------------------|
D--------------------------2-0---------|
A-5-55-55-55-5--22222222-------2-1-0---|
E------------------------------------3-|
            
Submit corrections

comments powered by Disqus
↑ Back to top | Mad Caddies Bass for Rockupation. Lyrics for acoustic guitar and electric guitar. Tablatures and chords are parodies/interpretations of the original songs. You may use it for private study, scholarship, research or language learning purposes only