» » »

Leavin' Tabs (ver.2)

Artists:  A B C D E F G H I J K L M N O P Q R S T U V W X Y Z # 

Leavin' Tabs (ver.2)

Mad Caddies
Rating:
0/5 (0 votes)

Hard to play? Try these video lessons and learn fast.
                -------------------------------------------------------------------------------
                             Leavin - Mad Caddies
-------------------------------------------------------------------------------

Tuning:standard

intro

 
Trumpet1              _________1 _______2
e|-----5--7-5---------|---------|---------|
B|---7-------7--7-3-5-|-3-5-7---|-5-7-5-3-|
G|--7-----------------|---------|---------|
D|--------------------|---------|---------|
A|--------------------|---------|---------|
E|--------------------|---------|---------|
     D              b |G    D   | G    D   

D                  
well the first that i went out on my own i was a young man almost 
b          G                 D                                    
seventeen right down to the day  well i packed up all my things i grabbed my 
                               b             G                D
bag and kissed my motherand i told her that i'd be back some day

trumpet 1
G|------------------------------------------------------------|
D|-------6b7--------6b7-----8b9-------------------------------|
A|------------------------------------------------------------|
 |trumpet2
e|---------5----7-5-------------------------------------------|
B|-------7----------7-----7--5-----7-5------------------------|
G|-7-7-7-------------------7-----7----7-----------------------|
D|------------------------------------------------------------|
A|------------------------------------------------------------|
E|------------------------------------------------------------|
 
D                                                        b           G       
so i jumped into the back of an 18-wheeler headed north destination did not 
      D                  
even ask with the wisdom that my father gave me ringin in my head so clearly
b                          G              D    
"son, this world's gonna kick you in the ass"

Chorus
G               F#                   b               E
i wanna go there and i'm not scared our time's just begun, oh yeah     
    life goes by so damn quickly for me wanna have some fun
    life goes by so damn quickly for me wanna have some fun
e|-------------------------------------------------------------------|
B|-------------------------------------------------------------------|
G|--7-----11---------------9----------9---12---11----9---7-----------|
D|--7-----11------9--------9----------9---12---11----9---7-----------|
A|--5------9------9--------7----------7---10----9----7---5-----------|
E|----------------7--------------------------------------------------|


D
now lookin back on the all the days gone by i said "i wonder what it would 
b                G         D
be like if i'd never went away" well i see the world the way i do
                                       b               G             D
the memories that brought me to this place that i now call my home today


    REPEAT[Chorus] 



(1:37)  ||.....||  (try quarter bends and make it sound a little bit off-key
B|--||---9--9-8-8-7-7-||-------------------------------|
G|--||--4--4---4---4--||--4~~--4~~---------------------|
 |
e|-----------------------------------------------------|
B|-----------------------------------------------------|
G|----16-16-16-16-16------4----4-----------------------|
D|----16-16-16-16-16------4----4-----------------------|
A|----14-14-14-14-14------2----2-----------------------|
E|-----------------------------------------------------|
                             So be in my head .....   
 
b              F#        G                   D                 b
So be in my head  in my head when i feel my whole world falls apart
        A          G         F#               b
in the end i'll be alright, alright yeah yeah

1:57
e|------10--------10----12b12b+r-10-------10--12b12b+r-10----12-13-----------|
B|----10--12----12---12------------12---12--12-----------12------------------|
G|-14------------------------------------------------------------------------|
D|---------------------------------------------------------------------------|
A|---------------------------------------------------------------------------|
E|---------------------------------------------------------------------------|
        b    F#                       G                       D

2:05
e|---13/17-13/17-13/17--19-17---------------------------------------------------|
B|---------------------------18-17-15------15--18-17-15-------------15----------|
G|-----------------------------------16--16--16--------16--14--14-16--16-14-----|
D|-----------------------------------------------------------16-------------16--|
A|------------------------------------------------------------------------------|
E|------------------------------------------------------------------------------|
                   b                     A(2:09)            G

 2:14
e|---------------------------------------------------------------------------|
B|-----------------------15-17-18-17-15---15-15~~~~~-------------------------|
G|---14-----14-16-14---16--------------16------------------------------------|
D|-16--16--------------------------------------------------------------------|
A|---------------------------------------------------------------------------|
E|---------------------------------------------------------------------------|
    F#       G         A        G          D (2:19)



| /  slide up
| \  slide down
| h  hammer-on
| p  pull-off
| ~  vibrato
| +  harmonic
| x  Mute note
===============================================================================
            
Hard to play? Try these video lessons and learn fast. | Correct




comments powered by Disqus
↑ Back to top | Tablatures and chords are parodies/interpretations of the original songs. You may use it for private study, scholarship, research or language learning purposes only