» » »

Mad Caddies, Leavin' Bass tabs (ver.1)

Artists:  A B C D E F G H I J K L M N O P Q R S T U V W X Y Z # 

Leavin' Bass tabs (ver.1)

Mad Caddies Tabs
 Rating:
4/5 (4 votes)
Leavin'  lessons Tabs too difficult? Try these video lessons and learn fast
                (1)
Mad Caddies 
Leavin'

Bass Come In At 00:06
G-----------------------------------------
D-----------------------------------------
A-0-3-4--5-0-5-0-5-0-5-0--2-----2-5-0-5---
E---------------------------2-3-----------

Play That For Verse

Chours
G------------------------------------------------------------------
D------------------------------------4444------2222-2222-5-4-2-0---
A-------------------22222222----5555------2222---------------------
E-33333333-22222222----------0*------------------------------------

New Verse
G---------------------------------------------
D---------------------------------------------
A-0-3-4--5-0-5-0-5-0-5-0-2222------55555555---
E-----------------------------3333------------

Bridge    *= Rightie-Left Hand Palm Mute    Lefty-Right Hand Palm Mute
G--------------------------------------------------------------------
D---------4-4-4-4-5-5-5-5--------------------------------------------
A-2-2-2-2-----------------5-5-5-4--2-2-2-2-0-0-0-0-------------------
E--------------------------------------------------3-3-3-3-***3***3--

Last Time
G--------------------------------------------------------------------------
D---------4-4-4-4-5-5-5-5--------------------------------------------------
A-2-2-2-2-----------------5-5-5-4--2-2-2-2-0-0-0-0---------------------5*--
E--------------------------------------------------3-3-3-3-2*-3*-5*-3*-----

New Verse
Drums First 
Then u come in
G---------------------
D---------------------
A-2222-------55555555-
E------3333-----------

Play Chours!

Thats as easy as it gets so rate!
            
Submit corrections

comments powered by Disqus
↑ Back to top | Mad Caddies Bass for Leavin'. Lyrics for acoustic guitar and electric guitar. Tablatures and chords are parodies/interpretations of the original songs. You may use it for private study, scholarship, research or language learning purposes only