» » »

Drinking For Bass tabs (ver.1)

Artists:  A B C D E F G H I J K L M N O P Q R S T U V W X Y Z # 

Drinking For Bass tabs (ver.1)

Mad Caddies
Rating:
3/5 (3 votes)

Hard to play? Try these video lessons and learn fast.
                (1)
Intro

G|----|----|----|----|----|----|----|----|
D|----|----|----|----|----|----|----|----|
A|8~--|----|----|----|----|----|8~--|----| Play second time
E|----|----|5~--|----|6~--|----|----|----|


Verse
G|--------|--------|--------|--------|--------|--------|--------|--------| 2x
D|--------|--------|--------|--------|--------|--------|--------|--------|
A|--------|----3-3-|--------|----7---|--------|----8-8-|--------|--------|
E|1---1---|---1----|5---5---|---5--5-|6---6---|---6----|6---6---|---69-6-|


Pre-Chorus
G|--------|--------|--------|--------|--------|--------|--------|--------|
D|--------|--------|--------|--------|--------|--------|--------|--------|
A|--------|---3----|--------|---7--8-|5-------|---8-8--|--------|--------|
E|1---1---|-----13-|5---0---|--5--6--|----5---|--6---5-|6---6---|---69-6-|

G|--------|--------|--------|--------|--------|--------|--------|--------|--------|--------|
D|--------|--------|--------|--------|--------|--------|--------|--------|--------|--------|
A|--------|---3----|--------|---7--8-|5-------|---8-8--|--------|--------|--------|--------|
E|1---1---|-----13-|5---0---|--5--6--|----5---|--6---5-|6-------|6--5--6-|8-------|--------|


Chorus

G|--------|--------|--------|--------| 3x
D|--------|------2-|--------|--------|
A|-------1|3-3-3--3|5-5-530-|1-1-131-|
E|1-1-1-1-|--------|--------|--------|

G|--------|--------|--------|--------|--------|--------|
D|--------|------2-|--------|--------|--------|--------|
A|-------1|3-3-3--3|5~------|--------|--------|--------|
E|1-1-1-1-|--------|--------|--------|6~------|3---356-|


Brass Part

G|--------|--------|--------|--------|--------|--------|--------|--------|
D|--------|--------|--------|--------|--------|--------|--------|-----3--|
A|--------|--------|--------|------33|--------|--------|--------|--------|
E|1-1---1-|5-5---35|6-6-653-|1-1--1--|1-1---1-|5-5---35|6-6-658-|1-------|


Verse

G|--------|--------|--------|--------|--------|--------|--------|--------| 2x
D|--------|--------|--------|--------|--------|--------|--------|--------|
A|--------|----3-3-|--------|----7---|--------|----8-8-|--------|--------|
E|1---1---|---1----|5---5---|---5--5-|6---6---|---6----|6---6---|---69-6-|


Pre-Chorus

G|--------|--------|--------|--------|--------|--------|--------|--------|
D|--------|--------|--------|--------|--------|--------|--------|--------|
A|--------|---3----|--------|---7--8-|5-------|---7-7--|--------|--------|
E|1--11---|-----13-|5---0---|--5--6--|----5---|--6---5-|6---6---|---69-6-|

G|--------|--------|--------|--------|--------|--------|--------|--------|--------|--------|
D|--------|--------|--------|--------|--------|--------|--------|--------|--------|--------|
A|--------|---3----|--------|---7--8-|5-------|---7-7--|--------|--------|--------|--------|
E|1--11---|-----13-|5---0---|--5--6--|----5---|--6---5-|6-------|6--5--6-|8-------|--------|


Chorus

G|--------|--------|--------|--------| 3x
D|--------|------2-|--------|--------|
A|-------1|3-3-3--3|5-5-530-|1-1-131-|
E|1-1-1-1-|--------|--------|--------|

G|--------|--------|--------|--------|--------|--------|
D|--------|------2-|--------|--------|--------|--------|
A|-------1|3-3-3--3|5~------|--------|--------|--------|
E|1-1-1-1-|--------|--------|--------|6~------|3---356-|


Brass Part

G|--------|--------|--------|--------|--------|--------|--------|--------|
D|--------|--------|--------|--------|--------|--------|--------|-----3--|
A|--------|--------|--------|------33|--------|--------|--------|--------|
E|1-1---1-|5-5---35|6-6-653-|1-1--1--|1-1---1-|5-5---35|6-6-658-|1-------|


Outro

G|----|----|----|----|----|----|----|
D|----|----|----|----|----|----|----|
A|----|----|----|----|----|----|8~--|
E|----|----|----|----|----|----|----|
            
Hard to play? Try these video lessons and learn fast. | Correct




comments powered by Disqus
↑ Back to top | Tablatures and chords are parodies/interpretations of the original songs. You may use it for private study, scholarship, research or language learning purposes only